Incubus - Sick Sad Little World Chords & Tabs

 

Sick Sad Little World Chords & Tabs

Incubus Chords & Tabs

Version: 3 Type: Tab 0 ratings
1 star 2 stars 3 stars 4 stars 5 stars
comments

Sick Sad Little World Tab

sick sad little world

this is a huge song, largely because of the solo.
i'm sure the solo i've tabbed is not completely correct, apologies if it's really bad
here you go:

tabbed by max sandall

main riff

-----------------------------------------------------------|
-------------------------------------------0-0-------------|
-------------------------------------------2-1-------------|
-------------------4------------2----------2-2----6--------|
-------4---4---------4----0h2h4---4-2-0-2--0-0--0h4--------|
---0-4---4---4--0-4----0-----------------------------------|

fast riff

chords played in fast strum

-------------------------|----                          -------|
-------------------------|----                          -------|
-------------------6-----|--->                          -------|
--6-----6-------2--x-----|--->                          ---6---|
--4-----4-7--4--2--4-----|---> last chord alternates to:---4---|
----------5--2--0--------|----                          -------|

soft part

'the world is a...' (sounds like a piano, but mike might be playing it aswell)

---------------------|
---------------------|
---------------------|
--4--2----4--2-4--7--|
--4--4----4--4-4--7--|
--2--4----2--4----5--| (the second from last chord could be wrong)

main riff

fast riff

soft part

main riff

------------------------------------------------|
------------------------------------0-----------|
----6-4-6-4h6---6-4h6-4h6---6-4h6---2-----------|
--4-----------4-----------4---------2-----------|
------------------------------------0-----------|
------------------------------------------------|    x2

---------------------------------------------------------|
---------------------------------------------------------|
----4--4/6--6-8-6-8-6-8-6-8-6-8--6-9---9-----------------|
--4----------------------------------9-------------------|
---------------------------------------------------------|
---------------------------------------------------------|

---------------------------------------------------------|
---------------------------------------------------------|
--8h11p8--8h11p8-----9-----------------------------------|
------------------11---11---9h11p9-9---9p7---------------|
---------------------------------------------------------|
---------------------------------------------------------|

---------------------------------12-12-------------------|
---------------------------------------------------------|
---------------------------------------13----------------|
---------------------------------------------------------|
---12p11--12-11h12----9--9h11----------------------------|
-------------------12---------12-------------------------|

---------------------------------------------------------|
-------14------12------9-7h9p7---9-----------------------|
-13-11----11\9----8/6----------9---6/8---8/9--11/13------|
---------------------------------------------------------|
---------------------------------------------------------|
---------------------------------------------------------|

-------------------------------12------------------------|
--------------9-10--10-14-12--------12-------------------|
---8p6--8h9-6-------9-/13--------------11----------------|
-----------------------------11---11-----11--------------|
---------------------------------------------------------|
---------------------------------------------------------|

---------------------12-14-----------------------------|
-----5-5/7-9---------------------12-14-12--------------|
----6--------9-9/8-9-------11-13-----------------------|
---5-----------------------x--x------------------------|
---------------------------9--11-----------------------|
-------------------------------------------------------|
[ Tab from: http://www.guitartabs.cc/tabs/i/incubus/sick_sad_little_world_tab_ver_3.html ]
---------14-12--14-12-14-12-21--21--------------------------|
--14-12----------------------------19-17--------------------|
------------------------------------------------------------|
------------------------------------------------------------|
------------------------------------------------------------|
------------------------------------------------------------|

-------------------------------------------------------------|
-----------------------------------5----5--------------------|
18-16----------16-18-16----18-16--6-6--6-6-------------------|
-----16--16-18----------16-----------5----5------------------|
-------------------------------------------------------------|
-------------------------------------------------------------|

this next part is played extremely fast. each note is picked repeatedly


------11---9---7--12--14--16------------------------|
--5----x---------------------14-12--9--7------------|
-6-6---9--------------------------------------------|
------11--------------------------------------------|
----------------------------------------------------|
----------------------------------------------------|

11-12-11--9--11-12-14-16-14-16-12-16-12-16-12--|
-----------------------------------------------|
-----------------------------------------------|
-----------------------------------------------|
-----------------------------------------------|
-----------------------------------------------|

-16p12-----16p12-----16p12-----------------|
------16p12-----16p12-----16p12------------|
-------------------------------------------|
-------------------------------------------|
-------------------------------------------|  x2
-------------------------------------------|

-12-16-12-19-------------------------------|
-------------------------------------------|
-------------------------------------------|
-------------------------------------------|
-------------------------------------------|
-------------------------------------------|

-----19p14-----19p14-----19p14---------------|
----------17p14-----17p14-----17p14----------|
---------------------------------------------|
---------------------------------------------| x2
---------------------------------------------|
---------------------------------------------|

fast picking stops at this point

------19-----------------------------------------------------------------|
--17---------------------------------------------------------------------|
------------6-4-6-4h6---6-4h6-4h6---6-4h6--6-4-6-4h6---6-4h6-4h6---6-4h6-|
----------4-----------4-----------4-------4-----------4-----------4------|
-------------------------------------------------------------------------|
-------------------------------------------------------------------------|

--------------------------|
--------------------------|
--6-4-6-8-6-4-6-4---4-----|
------------------6---6---|
--------------------------|
--------------------------|

------------------------------------------------------------------------|
-----------------------------------------------------------------0--0---|
--6-4-6-4h6---6-4h6-4h6---6-4h6--6-4-6-4h6---6-4h6-4h6---6-4h6---2--2---|
4-----------4-----------4-------4-----------4-----------4--------2--2---|
-----------------------------------------------------------------0--0---|
------------------------------------------------------------------------|

------------------------------------------------------------------|
------------------------------------------------------------------|
----6-4-6-4h6---6-4h6-4h6---6-4h6--6-4-6-4h6---6-4h6-4h6---6-4h6--|
--4-----------4-----------4-------4-----------4-----------4-------|
------------------------------------------------------------------|
------------------------------------------------------------------| x4

play main riff

x--end--x
Comments