Incubus - Sick Sad Little World Chords & Tabs

 

Sick Sad Little World Chords & Tabs

Incubus Chords & Tabs

Version: 2 Type: Tab 0 ratings
1 star 2 stars 3 stars 4 stars 5 stars
comments

Sick Sad Little World Tab

   
Artist:    Incubus
Title:     Sick, Sad, Little World

Tabbed by: BigDmetalpunk

This is my first tab, so be a good sport about it.  If you use my 
tab to make another version, please give me some credit.  I can't 
say for certain that this version is 100% accurate, so I encourage 
modifications as long my work is acknowledged.  Same goes for the 
artist; have fun with the tab, but don't try to make money off of 
it.

This is one of the songs off of the newly released "A Crow Left of
the Murder."  It is very cool, and shows Incubus' mastery of 
complex rhythyms.  I recommend playing along with the CD to find 
exact syncopation.  This tab does not include the solo becuase it
is long and difficult to hear distinct notes behind the guitar 
effects.




Riff A "Intro/Chorus"

e-----------------------------------------------------------------
B-----------------------------------------------------------------
G-----------------------------------------------------------------
D------4-----4-----------(9)------------------------9-9--666-6-76- x4
A------4-----4--------------------------------------7-7--444-7-77-
D--4h6----6-----6---6h7---7h9p7/11-11h14p11---4h6-6-7-7--444-7-77-



Riff B "Bridge to Verse"  !Play this in Double time!

e-||--------------------------------------------------------------
B-||--------------------------------------------------------------
G-||--------------------------------------------------------------
D-||--------------------------------------------------------------
A-||-11-11-11-11-11----11-11-11-11-11-11-7-7-7-7-7-7-4-4-4-4-4-46
D-||-11-11-11-11-11----11-11-11-11-11-11-7-7-7-7-7-7-4-4-4-4-4-46
[ Tab from: http://www.guitartabs.cc/tabs/i/incubus/sick_sad_little_world_tab_ver_2.html ]
e-------------------------------|| 
B-------------------------------||
G--6-6-6-6-6-6-6-11-11-11-11-11-|| 
D--6-6-6-6-6-6-6-11-11-11-11-11-|| x4
A--4-4-4-4-4-4-4-9--9--9--9--9--||
D--4-4-4-4-4-4-4-9--9--9--9--9--||



Riff C "Chorus" Slow Tempo (Tough to hear when the chords change)
Played in Half of normal time.
e-----------------------------------------------------------------
B-----------------------------------------------------------------
G---6---------------6---------------------------------------------
D---6---------------6--------------------------------------------- x4
A---4---------------7---------------------------------------------
D---4---------------7---------------------------------------------



Riff D "Transition To/From solo"

e-----------------------------------------------------------------
B-----------------------------------------------------------------
G-------9-9-------9-9-------9---9---------------------------------
D-------9-9-------9-9-------9---7--------------------------------- x2
A-----4-7-7-----4-7-7-----4-7---7---------------------------------
D---4---7-7---4---7-7---4---7---7---------------------------------

x3

Riff E "Transition from Solo"

e-----------------------------------||
B-----------------------------------||
G-------9-9-------9-9--------9---9--||
D-------9-9-------9-9--------9---7--|| x4
A-----4-7-7-----4-7-7------4-7---7--||
D---4---7-7---4---7-7----4---7---7--||


Arrangement:

Riff A  x4
Riff B  x4
Riff C  x4
Riff A  x4
Riff B  x4
Riff C  x4
Riff A  x4
Riff D  x2
Solo
Riff D (Plus Improv)  x3
Riff E  x4
Riff A  x4
Riff A (Diminuendo)   x2
Comments