Incubus - Sick Sad Little World Chords & Tabs

 

Sick Sad Little World Chords & Tabs

Incubus Chords & Tabs

Version: 1 Type: Bass Tab 0 ratings
1 star 2 stars 3 stars 4 stars 5 stars
comments

Sick Sad Little World Bass Tab

Band- Incubus
Song- Sick Sad Little World

Intro and Chorus

G||----------------------------------------------------------------|
D||------------------4-0-4-----------h2----------------------------|
A||------4---4---------------0h2h3h4---4-2-------------------------|
E||--0-5---5---5-0-2-----------------------5555555555555555555-222-|

G||-----------------------------------------------------------------|
D||------------------4-0-4-----------h2-----------------------------|
A||------4---4---------------0h2h3h4---4-2--------------------------|
E||--0-5---5---5-0-2-----------------------5555555555555555222-555--|

 Verse

Verse (Fast)

G|-----------------------------------------------------------------------------|
D|-----------------------------------------------------------------------------|
A|-4-4-4-4-4-4---4-4-4-4-4-4-------------------------------------4-4-4-4-4-4---|
E|---------------------------5-5-5-5-5-5--02-2-2-2-2-0-0-0-0-0-0---------------|
[ Tab from: http://www.guitartabs.cc/tabs/i/incubus/sick_sad_little_world_btab.html ]
G|---------------------------------------------------------------------------------|
D|----------------------------------------4-4-4-4-4-4/0----------------------------|
A|-4-4-4-4-4-4---4-4-4-4-4-4-----------------------------------------4-4-4-4-4-4---|
E|---------------------------5-5-5-5-5-5-----------------0-0-0-0-0-0---------------|

G|-----------------------------------------------------------------------------|
D|-----------------------------------------------------------------------------|
A|-4-4-4-4-4-4---4-4-4-4-4-4-------------------------------------4-4-4-4-4-4---|
E|---------------------------5-5-5-5-5-5--02-2-2-2-2-0-0-0-0-0-0---------------|

G|---------------------------------------------------------------------------------|
D|----------------------------------------4-4-4-4-4-4-2-2-2-2-2-2/0----------------|
A|-4-4-4-4-4-4---4-4-4-4-4-4-----------------------------------------4-4-4-4-4-4---|
E|---------------------------5-5-5-5-5-5-------------------------------------------|

Pre-Chorus
If u play with a pick... use octaves (power chords) and play like that
G||--------------------------------------------------|
D||--------------------------------------------------|
A||----9~~~~~~4~~~~~~~~9~~~~4~~7~~(12)---------------|(2 times before chorus)
E||-------------------------------5------------------|

Bridge (guitar solo)

G||-------------------------11/9---|
D||--------------------------9/7---| x alot
A||--9-----9------9----9--0~-------|
E||----989--98989--989--9----------|
I thought it was 7 instead of 8 but that's how he played it w/e
Comments