Incubus - Redefine Chords & Tabs

 

Redefine Chords & Tabs

Incubus Chords & Tabs

Version: 1 Type: Tab 0 ratings
1 star 2 stars 3 stars 4 stars 5 stars
comments

Redefine Tab

Song: Redefine
Band: Incubus
Album: Science
Transcribed By: Matthew Resnick

Tuning: Drop D 

Intro:(w/Distortion)
E:-------------------------------------------------
B:-------------------------------------------------
G:-------------------------------------------------
D:-------------------------------------------------
A:--------------------------2-0--------------------
D:--0-4-0-4-0-4-0-4-0-4-0-4-----0-4-0-4-0-4-0-4-0-4

Last Part of the Intro:(w/Distortion)
                        < Play 4X >
E:-------------------------------------------------
B:-------------------------------------------------
G:-------------------------------------------------
D:-0-0-0-0-3-3-3-3---0-4-4-0-4-4-4-4-0-4-0-4-------
A:-0-0-0-0-3-3-3-3---0-4-4-0-4-4-4-4-0-4-0-4-------
D:-0-0-0-0-3-3-3-3---0-4-4-0-4-4-4-4-0-4-0-4-------
[ Tab from: http://www.guitartabs.cc/tabs/i/incubus/redefine_tab.html ]
Verse:(w/flanger effects)play 4 times before chorus
                             **let the last note ring
E:-------------------------------------------------
B:--15--15--15--15--12-12-12--9--9-9-9-10----------
G:------------------12-12-12--9--9-9-9-10----------
D:-------------------------------------------------
A:-------------------------------------------------
D:-------------------------------------------------


Chorus:(w/distortion)
                           < Play 4X >
E:-------------------------------------------------
B:-------------------------------------------------
G:-------------------------------------------------
D:-0-0-0-0-3-3-3-3---0-4-4-0-4-4-4-4-0-4-0-4-------
A:-0-0-0-0-3-3-3-3---0-4-4-0-4-4-4-4-0-4-0-4-------
D:-0-0-0-0-3-3-3-3---0-4-4-0-4-4-4-4-0-4-0-4-------

                            < Play 4X >
E:-------------------------------------------------
B:-------------------------------------------------
G:-------------------------------------------------
D:-0-0-0-0-3-3-3-3---0-4-4-0-4-4-4-4-0-4-0-4-------
A:-0-0-0-0-3-3-3-3---0-4-4-0-4-4-4-4-0-4-0-4-------
D:-0-0-0-0-3-3-3-3---0-4-4-0-4-4-4-4-0-4-0-4-------

BASS SOLO

At the end of the bass solo:
            
E:-------------------------------------------------
B:-------------------------------------------------
G:-------------------------------------------------
D:-----6----6------------//5-----------------------
A:-------------------------------------------------
D:-------------------------------------------------

PLAY "Intro" again

PLAY "Chorus" again

Comments