Incubus - Redefine Chords & Tabs

 

Redefine Chords & Tabs

Incubus Chords & Tabs

Version: 1 Type: Bass Tab 0 ratings
1 star 2 stars 3 stars 4 stars 5 stars
comments

Redefine Bass Tab

   
FTH80:G D A D ; Generated by Fast Tab, do not erase
====================
>From            : tj  
Artist          : incubus
Song            : redefine
Album           : s.c.i.e.n.c.e.

Comments:       : here's all the main parts with some small 
notes to help you out... im sure you can put the pieces together...


G ----------------------------------------      
D ----------------------------------------  *this is the main heavy part*
A -----------------------------3----------
D --0H-4--4--0H-4--4--4--0--4-----4--0--4-                                   
                                        

                                                     
G -------------------------  *this is used to go into the chorus; also it breaks up the
D -------------------------             main heavy part*
A -------------------------
D --0--0--0--0--3--3--3--3-
>                                                                                
[ Tab from: http://www.guitartabs.cc/tabs/i/incubus/redefine_btab.html ]
                                          
G -----------------5--5--------7-------
D --------------------------7-----7----  *this is the verse part*
A --5--5--3--3--5--------5-----------6-
D -------------------------------------
>                                                                                

   *this is that fast part toward the end... im not positive about it but              
         i think its damn close...+=thumb slap L=left handed slap P=pop*     
G -------------------------------------10-------------10-------------10-  
D ----------------------------------------------------------------------  
A ----------------------------------------------------------------------
D --0--X--0--0--X--0--X--0--0--X--0--0-----0--X--0--0-----0--X--0--0----

>   +  L  +  +  L  +  L  +  +  L  +  +  P  +  L  +  +  P  +  L  +  +  P 

  *this part is obviously right after the fast part...its very simple but i put        
       it in just in case*
G ------------------------------------------------------------------------------
D ------------------------------------------------------------------------------
A ------------------------------------------------------------------------------
D --0--0--0-----0--0---0-0-0-0--0-0-0-0--0-0-0-0--0-0-0-0--0-0-0-0--0-0-0-0--0-0
>  

      *if you have any questions email me at... Raven6061@aol.com* 

Comments