Incubus - Psychopsilocyban Chords & Tabs

 

Psychopsilocyban Chords & Tabs

Incubus Chords & Tabs

Version: 1 Type: Tab 0 ratings
1 star 2 stars 3 stars 4 stars 5 stars
comments

Psychopsilocyban Tab

song-psychopsilocybin
band-incubus
tabber-enjoyincubus69
album-fungus amungus

this tab is at last 100% complete and is the only tab for this,
the greatest of all incubus songs,on the net
on the whole this is a good tab.it took bloody ages [5 solos] 
so please rate it. also, please feel free to 
correct the tab,as i want it to be 100% as much as anyone else

ENJOYINCUBUS!!!!!!!

main riff/0:00/wah pedal[different rhythms are used but these are the only notes
/chords youll need]


e-5--5-5-5-5-x-x-x-5--5-5-5-5-xxx-7x7x7---
b-6--6-6-6-6-x-x-x-6--6-6-6-6-xxx-8x8x8---
g-5--5-5-5-5-x-x-x-5--5-5-5-5-xxx-7x7x7---
d-----------------------------------------
a-----------------------------------------
e-----------------------------------------


pre chorus/0:22/distortion/palm muted            chorus/0:24/distortion


e-------------------                             e-------3-3-3-3---
b-------------------                             b-------3-3-3-3---
g---7-5-------------                             g-------x-x-x-x---
d---7-5-7-5-5-4-2---                             d---2-2-2-2-2-2---
a---5-3-7-5-5-4-2---                             a---2-2-2-2-2-2---
e---5-3-5-3-3-2-0---                             e---0-0-0-0-0-0---


solo 1/0:57/distortion

e------------------------------------------------------------
b--14b--14p12----12-------------15p12--15p12--14-------------
g--14b--14p12----12------------------------------------------
d-------------14----14--12h14--------------------------------
a------------------------------------------------------------
e------------------------------------------------------------


e---15-0-0-15-0-0-17-0-0-15-0-0-17-0-0-15-0-0-15h17-15---
b--------------------------------------------------------
g--------------------------------------------------------
d--------------------------------------------------------
a--------------------------------------------------------
e--------------------------------------------------------


e--19-17-15--15------------------------------------------
b----------19--19-17-15-19-17-15-17-19-17-15--15-17------
g--------------------------------------------------------
d--------------------------------------------------------
a--------------------------------------------------------
e--------------------------------------------------------


e-------------------------15--------------------------------
b--14-15-15-15-15p14-12h14----------------------------------
g-----------------------------------------------------------
d----------------------------------7fb~~-7p5----------------
a--------------------------------------------7--------------
e-----------------------------------------------------------


verse[pre drum solo]/1:14/wah pedal


e-------------------------------------------
b-------------------------------------------
g-------------------------------------------
d---7-7-xxxx-8-8-xxxx-9-9-xxxx-10-10-xxxx---
a---7-7-xxxx-8-8-xxxx-9-9-xxxx-10-10-xxxx---
e---5-5-xxxx-6-6-xxxx-7-7-xxxx-8--8--xxxx---


verse[post drum solo]/1:34/wah pedal 
e-----------------------------------------------------------
b-----------------------------------------------------------
g-----------------------------------------------------------
d--5-x-x-x-5-7----------------------------------------------
a--6-x-x-x-6-8----------------------------------------------
e--5-x-x-x-5-7----------------------------------------------

solo 2/1:51/light distortion

e--------------------------------------------------------------------12-13-13-13-
b------------------------------10-10-12-12-12-12-12-13-12-10-12~--10-------------
g----------------9-10-10-10p9----------------------------------------------------
d--9s10-10h12--------------------------------------------------------------------
a--------------------------------------------------------------------------------
e--------------------------------------------------------------------------------


e-12h13p12-10--10-------------------------------------------------------------
b------------13--13-12-10----12-12-12-10-12-10-12b--12b-12b-12b---------------
g---------------------------------------------------12b-12b-12b-12b-10-12b-10-
d-----------------------------------------------------------------------------
a-----------------------------------------------------------------------------
e-----------------------------------------------------------------------------


e-------------------------------------------
b-------------------------------------------
g---------------------------10~-------------
d--12-10--10-----------10h12----------------
a-------12--12-11-10-12---------------------
e-------------------------------------------


e-10-12--13-12-10--10-----------------------------------------------------------
b----------------13--13-12-10--10-----------------------------------------10~---
g----------------------------13--13-12-10--10------------------10-12-10-12------
d----------------------------------------12--12-11-10--10-11-12-----------------
a----------------------------------------------------12-------------------------
e-------------------------------------------------------------------------------


verse/2:07/harmonizer

e---5xx-5-5-5-5-x-4x-4-4-4-4-5xx-5-5-5-5-x-6x-6-6-6-6---
b---5xx-5-5-5-5-x-4x-4-4-4-4-5xx-5-5-5-5-x-6x-6-6-6-6---
g---5xx-5-5-5-5-x-4x-4-4-4-4-5xx-5-5-5-5-x-6x-6-6-6-6---
d-------------------------------------------------------
a-------------------------------------------------------
e-------------------------------------------------------
[ Tab from: http://www.guitartabs.cc/tabs/i/incubus/psychopsilocyban_tab.html ]
verse continued/2:31/wah pedal
e-x-x-x-x-x-x-x-x-x-x-x-x--------------------------------
b-x-x-x-x-x-x-x-x-x-x-x-x--------------------------------
g-x-x-x-x-x-x-x-x-x-x-x-x--------------------------------
d--------------------------------------------------------
a--------------------------------------------------------
e--------------------------------------------------------

pre solo/3:15/main riff sound
e-5---5-5------5---5-5-----5---5-5-----5---5-5--------
b-6---6-6------6---6-6-----6---6-6-----6---6-6--------
g-5---5-5------5---5-5-----5---5-5-----5---5-5--------
d-----------------------------------------------------
a-----------------------------------------------------
e-----------------------------------------------------


solo 3/3:23/dist + wah

e----------------------------------------------------------------------------
b----------------------------------------------------------------------------
g----------------------------------------------------------------------------
d-13-13-13-13-11-13p11--11-13p11-13p11--13p11--11----------------------------
a--------------------------------------------13--13-11-11-9-11p9-------------
e----------------------------------------------------------------11-9-11-----


e--------------------------------------------------------------
b---------------------------------------------------------------
g---------------------------------------------------------------
d---------------------------------------------------------------
a---------------------------------------------------------------
e-1-x-1-x-3-x-1-x-1h3-x-1h3-x-1h3-x-1---------------------------

e-------------------------------------------------------------------------
b-------------------------------------------------------------------------
g-------------------------------------------------------------------------
d-------------------------------------------------------------------------
a-5--5-5--5-5-3-5p3-5p3-5p3---3-------------------------2--------0--------
e---------------------------5---5-3--3-1-3-1-2-0-2---------3-x------0-----


solo 4/3:39/distortion

e--------------------------------------------------------------------------
b--------------------------------------------------------------------------
g---14brp12---12-----------------------------------------------------------
d-----------14--14-14-14-14p12----12-------------------14-12~--------------
a------------------------------14----14-12-12-12-12-14---------------------
e--------------------------------------------------------------------------

e---12-12-15-12-12-17-12-12-18-12-12-17-12-12-15-12-12-12-----15p12-15p12-15p12--12~-
b------------------------------------------------------------------------------15----
g------------------------------------------------------------------------------------
d------------------------------------------------------------------------------------
a------------------------------------------------------------------------------------
e------------------------------------------------------------------------------------


e-----17brp15-------------19------17-----15----15--15------------------------------------
b---------------17-15-------15------15-----15----15-------------15h17-17-17-17b--15h17b-----
g------------------------------------------------------------------------------------------
d------------------------------------------------------------------------------------------
a------------------------------------------------------------------------------------------
e----------------------------------------------------------------------------------------


solo 5/3:55/light distortion

e----17-15-13----13--------------------17-15-13----13---------------------------------------
b-------------17----17-15-15-13-15--------------17----17-15-15-13-15------------------------
g-------------------------------------------------------------------------------------------
d-------------------------------------------------------------------------------------------
a-------------------------------------------------------------------------------------------
e-------------------------------------------------------------------------------------------


e---------------------------------------------------------------------------------------
b---13-15-15-13-13-13-x-12-13-13-12h13p12-10-12-12-12-12-10-10-10-x-8-10----------------
g---------------------------------------------------------------------------------------
d---------------------------------------------------------------------------------------
a---------------------------------------------------------------------------------------
e---------------------------------------------------------------------------------------e----17------15------13-----12----11--------------------------------------------------------
b--14--14--12--12--10--10--9--9--8--8-------------------------------------------------------
g-------------------------------------8s10-xxx-8s10--12brp10--10----------------------------
d-----------------------------------------------------------12------------------------------
a-------------------------------------------------------------------------------------------
e-------------------------------------------------------------------------------------------

lyrics

verse 1:
[Psychopsilocybin runnin horny muther ***er.] 
[Trippin on his shoelace, searchin for the hairy sucker.] 
[He dont need no funny money, his love is all his power.] 

prechorus:
[Half-naked and full witted, and two weeks less a shower!] 

verse 2:
[You'll see me, I'll be there, with my nose in the grass!]
[One for me, one for you.]
[Two for me, one for you.] 
[Three for me, one for you.] 
[End of the sack, now the fungi's they are bloom.]
Comments