Incubus - Privilege Chords & Tabs

 

Privilege Chords & Tabs

Incubus Chords & Tabs

Version: 8 Type: Tab 0 ratings
1 star 2 stars 3 stars 4 stars 5 stars
comments

Privilege Tab

Artist:Incubus
Song:Privilege
Album:Make Yourself
Tabbed by:rafa88offspring

Here it is, I think the 3rd version of this tab was good, but itīs kinda hard
to play so I tabbed it in Drop D which seems to be the way Mike plays it
(I got "When Incubus Attacks part 2")so, enjoy:)
[ Tab from: http://www.guitartabs.cc/tabs/i/incubus/privilege_tab_ver_8.html ]
Intro & Chorus 
e-------------------------------------------------
b-------------------------------------------------
g-------6-----------------6-------7---------------
D-7-5-x-6-7-7-5-444-7-5-x-6-7-7-5-7---------------
A-7-5-x-6-7-7-5-444-7-5-x-6-7-7-5-7---------------
D-7-5-x---7-7-5-444-7-5-x---7-7-5-----------------

Verse
e----------------------------------------------------
b----------------------------------------------------
g----------------------------------------------------
D-7-5--7-55--7-5--7-55-5/8---------------------------
A-7-5--7-55--7-5--7-55-5/8---------------------------
D-7-5--7-55--7-5--7-55-5/8---------------------------

Pre-Chorus (I donīt know if itīs right to play the "0īs" but sounds good to me)
e------999-----------------
b------999-----------------
g-------------------------- 8x
D--------------------------
A--------------------------
D---00---------------------
Pm  ..
Comments