Incubus - Privilege Chords & Tabs

 

Privilege Chords & Tabs

Incubus Chords & Tabs

Version: 7 Type: Tab 0 ratings
1 star 2 stars 3 stars 4 stars 5 stars
comments

Privilege Tab

This is standard tuning

Intro-Distortion
|--------------------------------------------------------------------|
|--------------------------------------------------------X-7-7-7-----|
|--------6---------------------------------6-------------X-X-X-X-----|
|-7-5-XX-6-7-X--7--X--5-XX-4-5-X-7-7-5-X-X-6-7-X-7-X-5-X-X-4-4-4--X--|
|-7-5-XX-4-7-X--7--X--5-XX-4-5-X-7-7-5-X-X-4-7-X-7-X-5-X----------X--|
|-5-3-XX-4-5-x--5--X--3-XX-2-3-X-5-5-3-X-X-4-5-X-5-X-3-X----------X--|
                                                    PAlm Mute..  
|--------------------------------------------------------------------|
|--------------------------------------------------------------------|
|--------6---------------------------------6-------------------------|
|-7-5-XX-6-7-X--7--X--5-XX-4-5-X-7-7-5-X-X-6-7-X-7-X-5-X-X-X-X-X-----|
|-7-5-XX-4-7-X--7--X--5-XX-4-5-X-7-7-5-X-X-4-7-X-7-X-5-X-X-X-X-X-----|
|-5-3-XX-4-5-x--5--X--3-XX-2-3-X-5-5-3-X-X-4-5-X-5-X-3-X-X-X-X-X-----|

|--------------------------------------------------------------------|
|-----------------------------------X-X-X-X-7------------------------|
|------6---------------------6------X-X-X-X-X-0------6---------------|
|-7-5--6-7-7--5---4-5---7-5--6-7--7-X-X-X-X-4-0-7-5--6-7-7-5---4-5---|
|-7-5--4-7-7--5-0-4-5-0-7-5--4-7--7-X-X-X-X---0-7-5--4-7-7-5-0-4-5-0-|
|-5-3--4-5-5--3-0-2-3-0-5-3--4-5--5-X-X-X-X-----5-3--4-5-5-3-0-2-3-0-|
              P.M....
|--------------------------------------------------------------------|
|--------------------------------------------------------------------|
|------6----------XX---------6---------------------------------------|
|-7-5--6-7--7-5-5-XX---7-5---6-7--7--5-5-5-5-5-5-5-------------------|
|-7-5--4-7--7-5-5-XX-X-7-5---4-7--7--5-5-5-5-5-5-5-------------------|
|-5-3--4-5--5-3-3-XX-X-5-3---4-5--5--3-3-3-3-3-3-3-------------------|

Verse-Distortion
[ Tab from: http://www.guitartabs.cc/tabs/i/incubus/privilege_tab_ver_7.html ]
|--------------------------------------------------------------------|
|--------------------------------------------------------------------|
|--------------------------------------------------------------------|
|--------------------------------------------------------------------|
|--------------------------------------------------------------------|
|---5--3---------0--5----3------X--5--5--3----X--5----3-----X--5--6--|

Pre-Chorus-Phaser And distortion
                                                              P.M...
|-4-4-4-4--4-4-4-4--4-4-4-4--4-4-4-4--4-4-4-4--4-4-4-4--4-4-4-4------|
|-2-2-2-2--2-2-2-2--2-2-2-2--2-2-2-2--2-2-2-2--2-2-2-2--2-2-2-2------|
|--------------------------------------------------------------------|
|---------------------------------------------------------------X-X-X|
|---------------------------------------------------------------X-X-X|
|---------------------------------------------------------------X-X-X|

Chorus-distotion

|--------------------------------------------------------------------|
|--------------------------------------------------------------------
|------6----------------7-7-7-7-7--7-7--5-5-5-5-5--5-5--------------
|-7-5--6-7--7-5---4-5---7-7-7-7-7--7-7--5-5-5-5-5--5-5---------------
|-7-5--4-7--7-5-0-4-5-0-5-5-5-5-5--5-5--3-3-3-3-3--3-3--------------
|-5-3--4-5--5-3-0-2-3-0-5-5-5-5-5--5-5--3-3-3-3-3--3-3--------------


|--------------------------------------------------------------------|
|------------------------1-1-X-X-1-1--1-1--------3-------------------|
|------6-----------------2-2-X-X-2-2--2-2--------3-------------------|
|-7-5--6-7--7-5---4-5----3-3-X-X-3-3--3-3--------3-------------------|
|-7-5--4-7--7-5-0-4-5-0--3-3-X-X-3-3--3-3--------1-------------------|
|-5-3--4-5--5-3-0-2-3-0--1-1-X-X-1-1--1-1--0--1--1-------------------|


|--------------------------------------------------------------------|
|--------------------------------------------------------X-7-7-7-----|
|--------6---------------------------------6-------------X-X-X-X-----|
|-7-5-XX-6-7-X--7--X--5-XX-4-5-X-7-7-5-X-X-6-7-X-7-X-5-X-X-4-4-4--X--|
|-7-5-XX-4-7-X--7--X--5-XX-4-5-X-7-7-5-X-X-4-7-X-7-X-5-X----------X--|
|-5-3-XX-4-5-x--5--X--3-XX-2-3-X-5-5-3-X-X-4-5-X-5-X-3-X----------X--|



This is right just find thje timing and u have it
Comments