Incubus - Privilege Chords & Tabs

 

Privilege Chords & Tabs

Incubus Chords & Tabs

Version: 6 Type: Tab 0 ratings
1 star 2 stars 3 stars 4 stars 5 stars
comments

Privilege Tab

------------------------------------------------------------------------------
------------------------------------------------------7-7-7-7-----------------
---------6------------------------------6-------------x-x-x-x-----------------
-7-5-x-x-6-x-x-7-5-x-x-4/-5-x-x-7-5-x-x-6-x-x-7-5-x-x-4-4-4-4-----------------
-7-5-x-x-4-x-x-7-5-x-x-4/-5-x-x-7-5-x-x-4-x-x-7-5-x-x-------------------------
-5-3-x-x---x-x-5-3-x-x-2/-3-x-x-5-3-x-x---x-x-5-3-x-x-------------------------
 Intro                                                                 

--------------------------------------------------------x--x-x----------------
--------------------------------------------------------x--x-x----------------
---------6------------------------------6---------------x--x-x----------------
-7-5-x-x-6-x-x-7-5-x-x-4/-5-x-x-7-5-x-x-6-x-x-7-5-x-x-x-----------------------
-7-5-x-x-4-x-x-7-5-x-x-4/-5-x-x-7-5-x-x-4-x-x-7-5-x-x-x-----------------------
-5-3-x-x---x-x-5-3-x-x-2/-3-x-x-5-3-x-x---x-x-5-3-x-x-x-----------------------
 

------------------------------------------------------------------------------
----------------------------------------------------7-------------------------
---------6---------------------------6--------------x-------------------------
-7-5--5--6-7-7-5--x-4/-5-x-x-7-5--5--6-7-7--x-x-x-x-4-------------------------
-7-5--5--4-7-7-5--x-4/-5-x-x-7-5--5--4-7-7--x-x-x-x---------------------------
-5-3--3----5-5-3--x-2/-3-x-x-5-3--3----5-5--x-x-x-x---------------------------
 Pre-Verse (distortion)                                                       
[ Tab from: http://www.guitartabs.cc/tabs/i/incubus/privilege_tab_ver_6.html ]
----------------------------------------------------------|-------------------
----------------------------------------------------------|-------------------
---------6---------------------------6--------------------|-------------------
-7-5--5--6-7-7-5--x-4/-5-x-x-7-5--5--6-7-7--5-5-x--x-x-x--|-5--5-5-5----------
-7-5--5--4-7-7-5--x-4/-5-x-x-7-5--5--4-7-7--5-5-x--x-x-x--|-5--5-5-5----------
-5-3--3----5-5-3--x-2/-3-x-x-5-3--3----5-5--3-3-x--x-x-x--|-3--3-3-3----------
 

------------------------------------------------------------------------------
------------------------------------------------------------------------------
------------------------------------------------------------------------------
-7-5---7-7-5--7--7-7-5--7-7-5--7-8--------------------------------------------
-7-5---7-7-5--7--7-7-5--7-7-5--7-8--------------------------------------------
-5-3---5-5-3--5--5-5-3--5-5-3--5/6--------------------------------------------
 Verse  

Pre chorus  

----------------------------------------------------------
-7-7-7-7----7-7-7-7----7-7-7-7----7-7-7-7-----------------
-x-x-x-x----x-x-x-x----x-x-x-x----x-x-x-x-----------------       x2
-4-4-4-4----4-4-4-4----4-4-4-4----4-4-4-4-----------------
----------------------------------------------------------
----------------------------------------------------------

------------------------------------------------------------------------------
------------------------------------------------------------------------------
--------6-------------------7--7-7-7-7-7--5--5-5------------------------------
-7-5--5-6-7-7-5--x-4/-5-5-x-7--7-7-7-7-7--5--5-5------------------------------
-7-5--5-4-7-7-5--x-4/-5-5-x-5--5-5-5-5-5--3--3-3------------------------------
-5-3--3---5-5-3--x-2/-3-3-x-5--5-5-5-5-5--3--3-3------------------------------
 Chorus  

------------------------------------------------------------------------------
------------------------------------------------------------------------------
--------6---------------------------------------------------------------------
-7-5--5-6-7-7-5--x-4/-5-x-x--3--x-x--3--x-x--3--------------------------------
-7-5--5-4-7-7-5--x-4/-5-x-x--3--x-x--3--x-x--3--------------------------------
-5-3--3---5-5-3--x-2/-3-x-x--1--x-x--1--x-x--1--------------------------------
Comments