Incubus - Privilege Chords & Tabs

 

Privilege Chords & Tabs

Incubus Chords & Tabs

Version: 5 Type: Tab 0 ratings
1 star 2 stars 3 stars 4 stars 5 stars
comments

Privilege Tab

   
-----------------------------------------------------------
                       Privilege
-----------------------------------------------------------

By; luc
Normal tuning.

Intro (dist.)
e|--------------------------------------------
B|-----------------------------7-7-7-7--------
G|-----6---------------6-------X-X-X-X--------
D|-7-5-6-7-7-5-4-5-7-5-6-7-7-5-4-4-4-4--------
A|-7-5-4-7-7-5-4-5-7-5-4-7-7-5----------------
E|-5-3-4-5-5-3-2-3-5-3-4-5-5-3----------------
[ Tab from: http://www.guitartabs.cc/tabs/i/incubus/privilege_tab_ver_5.html ]
Verses (dist.)
e|------------------------------------
B|------------------------------------
G|------------------------------------
D|-7-5---7-5--7-5--7-5-X-X-8----------
A|-7-5---7-5--7-5--7-5-X-X-8----------
E|-5-3---5-3--5-3--5-3-X-X-6----------

Prechorus Bass plays low note
e|---9-9-9-9-----9-9-9-9--------------
B|---9-9-9-9-----9-9-9-9--------------
G|------------------------------------
D|---Play over and over again---------
A|------------------------------------
E|------------------------------------

Chorus
e|-----------------------------------------------------
B|-----------------------------------------------------
G|-----6-----------7-7-7-7-5-5-5-5-----6---------------
D|-7-5-6-7-7-5-4-5-7-7-7-7-5-5-5-5-7-5-6-7-7-5-4-3-3-3-
A|-7-5-4-7-7-5-4-5-5-7-7-7-3-3-3-3-7-5-4-7-7-5-4-3-3-3-
E|-5-3-4-5-5-3-2-3-5-5-5-5-3-3-3-3-5-3-4-5-5-3-2-1-1-1-

That's it. It's sounds exactly correct. Write what you think at the bottom.
Comments