Incubus - Priceless Chords & Tabs

 

Priceless Chords & Tabs

Incubus Chords & Tabs

Version: 1 Type: Bass Tab 0 ratings
1 star 2 stars 3 stars 4 stars 5 stars
comments

Priceless Bass Tab

Band- Incubus
Song- Priceless

Intro/verse
G-----------------------------------------------------------|
D-----------------------------------------------------------|
A-----3---------3-------------------3---------3-2h3h4h5-----|
E-x-2---x-x-x-2---2h3h4p3p2-x-2---x-x-x-2-------------------|


Chorus   FLOOOOORRRRR......
G---------------55-5-----------------55-5-77-7---|
D-33-3-3-33-3-3------77-7-33-3-------------------|
A------------------------------33-3--------------|
E------------------------------------------------|
[ Tab from: http://www.guitartabs.cc/tabs/i/incubus/priceless_btab.html ]
solo
G----------------------------------------------------------|
D----------------------------------------------------------|
A----------------------------------------------------------|
E-4444---4444---4444---4444---4444-------------------------|

G-------------------------------------------------|
D-------------------------------------------------|
A-----6-------6--------6--------------------------|
E--44--4---44---4---44---4------------------------|

Bridge

G------------------------3-------------------------|
D---------222222---5-3-5---5-4-3 some random fill--|
A-------3------------------------------------------|
E-00-22--------------------------------------------|
Comments