Incubus - Pistola Chords & Tabs

 

Pistola Chords & Tabs

Incubus Chords & Tabs

Version: 4 Type: Tab 0 ratings
1 star 2 stars 3 stars 4 stars 5 stars
comments

Pistola Tab

Pistola

Tabbed by max sandall

This is a really good song and the main riff of the verse is pure incubus:)

verse

----------------------------------------------------|
----------------------------------------------------|
-----------------13-----13----------------13-----13-|
------18----18-----------------18----18-------------|
----19-----------------------19---------------------|
---0-----0-0---10--10-11----0-----0-0---10--10-11---|

----------------------------------------------------------|
----------------------------------------------------------|
-----------------13-----13---------------13-----13-13-----|
----18----18------------------18----18--------------------|
--19------------------------19----------------12----------|
-0-----0-0--10-10--10-11---0-----0-0---10--10-------------|    x2

----------------------------------------------------------|
----------------------------------------------------------|
------18----18---18---18-------18----18---18---18---------|
----19-----------------------19---------------------------|
---0-----0-0----------------0-----0-0---------------------|    x2
--------------16----14------------------16---14-----------|

----------------------------------------------------|
----------------------------------------------------|
-----------------13-----13----------------13-----13-|
------18----18-----------------18----18-------------|
----19-----------------------19---------------------|
---0-----0-0---10--10-11----0-----0-0---10--10-11---|

chorus
[ Tab from: http://www.guitartabs.cc/tabs/i/incubus/pistola_tab_ver_4.html ]
------------------------|
------------------------|
--5----------5-----9----|
--5---7---2--5--7--9----|
--3---7---2--3--7--7----|
------5---0-----5-------| x2

verse

chorus

-----------------------|
-----------------------|
--5----------5-----9---|
--5---7---2--5--7--9---|
--3---7---2--3--7--7---|
------5---0-----5------|

-----------------------|
-----------------------|
--5----------5---------|
--5---7---2--5--7--2---|
--3---7---2--3--7--2---|
------5---0-----5--0---|

play the next chord as long as is required

------------------------|
------------------------|
------------------------|
---8--------------------|
---7--------------------|
---0--------------------|

-------------------------------------------------------------|
-------------------------------------------------------------|
-------------------------------------------------------------|
----------------------------------4------2-------------------|
--9---7-6-----9-9---9-9-7-6--------------2-------------------|
----7-5-4-2-0-7-7---7-7-5-4--2-0---2-0-2-0-------------------| x4

this is the start of the solo, but i'm stumped as to what the rest of it is, <:)sorry

----14-14(picked repeatedly)---------------------------------|
--7-------------------------12-10--10h12-9h10-7--------------|
-------------------------------------------------------------|
-------------------------------------------------------------|
-------------------------------------------------------------|
-------------------------------------------------------------|

verse

chorus
Comments