Incubus - Pardon Me Chords & Tabs

 

Pardon Me Chords & Tabs

Incubus Chords & Tabs

Version: 8 Type: Tab 0 ratings
1 star 2 stars 3 stars 4 stars 5 stars
comments

Pardon Me Tab

Title: Pardon Me 
Artist: Incubus 
Tabbed By: Rishesh 


This intro bit uses some sort of effect, I think delay. Sounds good if you 
flicker the volume though. 


Riff 1 

E-0--0--0--0--0- 
B-0--0--0--0--0- 
G-4--4--4--4--4- 
D-2--2--2--2--2- 
A-4--0--4--0----- 
E------------------- 

Repeat that for a while then Riff 2: 

E--4----4--4--4----4---4- 
B--4----4--4--4----4---4- 
G--6----6--6--6----6---6- 
D--6----6--6--6----6---6- 
A--4----4--4--4----4---4- 
E---------------------------- 


Then Riff 3: 
[ Tab from: http://www.guitartabs.cc/tabs/i/incubus/pardon_me_tab_ver_8.html ]
E--0--0--0--0----0---0--0 
B--0--0--0--0----0---0--0 
G--2--2--2--2----2---2--2 
D--2--2--2--2----2---2--2 
A--0--0--0--0----0---0--0 
E---------------------------- 

Alternate between the above two patterns, then for the verse: 

Riff 4: 

E--11------11------ 
B------------------- 
G--11------11------ 
D--9-------9------- 
A--11------7------- 
E------------------- 

Just strum those. Then for the chorus do Riff 2 and 3. 
That's it. For the lyrics, and a ton of other lyrics check out my site: 
http://www.rishesh.com 


Comments