Incubus - Pardon Me Chords & Tabs

 

Pardon Me Chords & Tabs

Incubus Chords & Tabs

Version: 7 Type: Tab 0 ratings
1 star 2 stars 3 stars 4 stars 5 stars
comments

Pardon Me Tab

Incubus, Pardon Me ( acoustic ).
 Tabbed by BrianMatthewsBnd@aol.com.
  
Best i can figure out...

Intro
e---------------------------------------
B---------0----------------0------------
G-----4------2---2------4----2---2------
D---2----------4------2--------4--------
A-4-----4-----------0-------------------
E---------------------------------------

e------------------------------0-0-0--------
B----------0-------------------0-0-0--------
G------4------2---2-------4----4-4-4--------
D----2----------4-------2------2-2-2--------
A--4-----4------------0-----0--0-0-0--------
e-------------------------------------------

Intro, Verse
e-0-0-0-0-0---0-0-0-0-0-------------------------
B-0-0-0-0-0---0-0-0-0-0-------------------------
G-6-6-6-6-6---2-2-2-2-2-------------------------
D-6-6-6-6-6---2-2-2-2-2-------------------------
A-4-4-4-4-4---0-0-0-0-0-------------------------
E-4-4-4-4-4-------------------------------------

e-0-0-0-0-0---0-0-0--0-0-0--------------------
B-0-0-0-0-0---0-0-0--0-0-0--------------------
G-6-6-6-6-6---2-2-2--1-1-1--------------------
D-6-6-6-6-6---2-2-2--2-2-2--------------------
A-4-4-4-4-4---0-0-0--2-2-2--------------------
E-4-4-4-4-4----------0-0-0--------------------

e-0-0-0-0-0---0-0-0-0-0-------------------------------
B-0-0-0-0-0---0-0-0-0-0-------------------------------
G-6-6-6-6-6---2-2-2-2-2-------------------------------
D-6-6-6-6-6---2-2-2-2-2-------------------------------
A-4-4-4-4-4---0-0-0-0-0-------------------------------
E-4-4-4-4-4-------------------------------------------
[ Tab from: http://www.guitartabs.cc/tabs/i/incubus/pardon_me_tab_ver_7.html ]
e-0-0-0-0-0--0--0----------------------
B-0-0-0-0-0--5--0--2-------------------
G-6-6-6-6-6--4--4--2-------------------
D-6-6-6-6-6--2--4--2-------------------
A-4-4-4-4-4--0--2--0-------------------
E-4-4-4-4-4----------------------------

Verse
e---1--1---1----1---------------------------
B---0--0---0----0-----2----2----2----2------
G-2---2---------------0----0----0----0------
D---------2---2----1-----1-----1---1--------
A-------------------------------------------
E-------------------------------------------

e-------0----0-------0-0----0--0-------------
B-------4----4-------0-0----3--3-------------
G--------------------4-4----2--2-------------
D--------------------4-4--0---0--------------
A--2/-4----4-----2---2-2---------------------
E--------------------------------------------

e------------0------4-4-4----2-2-2--------0---0----
B----------4--------4-4-4----2-2-2--------0---0----
G--------4----------4-4-4----3-3-3------4-----2----
D-------------4-4--2-------1----------4-------2----
A-2/--4-------4-4-------------------2---------0----
E--------------------------------------------------

Chorus    (chords, figure out the pattern urself)
e--0--0--0---------------------------------------
B--0--0--0---------------------------------------
G--6--4--2---------------------------------------
D--6--4--2--2-----2------------------------------
A--4--2--0--2--4--2------------------------------
E-----------0--2--0------------------------------

play that 2times then...
e-0--0--0---------------------------------
B-0--0--0---------------------------------
G-4--2--4---------------------------------
D-4--2--4----6-2-6-2----------------------
A-6--0--2----6-2-6-2----------------------
E------------4-0-4-0----------------------

:: Ultimate Guitar Archive :: 
http://www.ultimate-guitar.com
Comments