Incubus - Pardon Me Chords & Tabs

 

Pardon Me Chords & Tabs

Incubus Chords & Tabs

Version: 13 Type: Tab 0 ratings
1 star 2 stars 3 stars 4 stars 5 stars
comments

Pardon Me Tab

THis Tab is all right. Done in Standard.  Incubus is the best band 
The Verse is difficult because Mike Einziger uses lots of pedals.


Intro-With Flanger and Volume Swell
        
    E|--0------0------0------0---0--|
    B|--0------0------0------0---0--|
    G|--4------4------4------4---6--|
    D|--2------2------2------2------|
    A|--4------4------4------4------|
    E|---------5-------------5------|

     INTRO PART B-Distortion

    E|--------------------------------|
    B|--------------------------------|
    G|--6--6-6-6--6-6-2-2-2-2-2--2-2--|
    D|--6--6-6-6--6-6-2-2-2-2-2--2-2--|
    A|--4--4-4-4--4-4-0-0-0-0-0--0-0--|
    E|--4--4-4-4--4-4-0-0-0-0-0--0-0--|

    E|--------------------------------|
    B|--------------------------------|
    G|--6--6-6-6--6-6-2-2-2-2---------|
    D|--6--6-6-6--6-6-2-2-2-2-2--2-2--|
    A|--4--4-4-4--4-4-0-0-0-0-2--2-2--|
    E|--4--4-4-4--4-4-0-0-0-0-0--0-0--|

    E|------------------------0-------|
    B|------------------------0-------|
    G|--6--6-6-6--6-6-2-2-2-2-2-------|
    D|--6--6-6-6--6-6-2-2-2-2-2--2-2--|
    A|--4--4-4-4--4-4-0-0-0-0-0--0-0--|
    E|--4--4-4-4--4-4-0-0-0-0-0--0-0--|

    E|--------------------------------|
    B|--------------------------------|
    G|--6--6-6-6-6-9-9-9-9------------|
    D|--6--6-6-6-6-9-9-9-9-9-9-9-9-9--|
    A|--4--4-4-4-4-7-7-7-7-9-9-9-7-7--|
    E|--4--4-4-4-4-7-7-7-7-7-7-7-5-5--|

     VERSE:-*With fingers and volume swell    # with Wah Pedal
              ^ With delay 4 repeats
        *        *         *         ^   
    E|-------------------------------0-------|
    B|--7--------7---------0---------4-------|
    G|--4--------4---------6-----------------|
    D|--6--------6---------5-----------------|
    A|-----------7---------6-----------------|
    E|---------------------------------------|
           
               #     
    E|--x-x-x-x-x-x-x-x----------------------|
    B|--x-x-x-x-x-x-x-x----------------------|
    G|--x-x-x-x-x-x-x-x----------------------|
    D|---------------------------------------|
    A|---------------------------------------|
    E|---------------------------------------|

        *             ^               #
    E|--0-------------0--------x-x-x-x-x-x-x-|
    B|--3-------------4--------x-x-x-x-x-x-x-|
    G|--2----------------------x-x-x-x-x-x-x-|
    D|--0------------------------------------|
    A|---------------------------------------|
    E|---------------------------------------|

          *                     #
    E|-----------------x-x-x-x-x-x-x-x-x-x---|
    B|----4------------x-x-x-x-x-x-x-x-x-x---|
    G|-----------------x-x-x-x-x-x-x-x-x-x---|
    D|---------------------------------------|
    A|----2----------------------------------|
    E|---------------------------------------|
     

     PRE-CHORUS:-distortion
[ Tab from: http://www.guitartabs.cc/tabs/i/incubus/pardon_me_tab_ver_13.html ]
    E|---------------------------------------------|
    B|---------------------------------------------|
    G|--2-2-2-2-2-2-2-2-2-2-2-2-2-2-2--------------|
    D|--2-2-2-2-2-2-2-2-2-2-2-2-2-2-2--------------|
    A|--0-0-0-0-0-0-0-0-0-0-0-0-0-0-0--------------|
    E|---------------------------------------------|

     CHORUS:-Distortion
       Fig.1 repeat 2 times
    E|----------------------------0-0-0--0-0--0-0-------------------|
    B|----------------------------0-0-0--0-0--0-0-------------------|
    G|-6-6-6--6-6-6-6-2-4-4-4-4-2-2-2-2--2-2--2-2-------------------|
    D|-6-6-6--6-6-6-6-2-4-4-4-4-2-2-2-2--2-2--2-2-2-4-2-2-2-4-2-2-2-|
    A|-4-4-4--4-4-4-4-0-2-2-2-2-0-0-0-0--0-0--0-0-2-4-2-2-2-4-2-2-2-|
    E|-4-4-4--4-4-4-4-0-2-2-2-2-0-----------------0-2-0-0-0-2-0-0-0-|

       Fig. 2 once
    E|-------------------------------------------------0-0-0-0-0-0-0-|
    B|-----------------0-0-0-0-0-0---------------------0-0-0-0-0-0-0-|
    G|--6-6-6--6-6-6-6-2-2-2-2-2-2-4-4-4---4-4--4--4-4-4-4-4-4-4-4-4-|
    D|--6-6-6--6-6-6-6-2-2-2-2-2-2-4-4-4---4-4--4--4-4---------------|
    A|--4-4-4--4-4-4-4-0-0-0-0-0-0-2-2-2---2-2--2--2-2---------------|
    E|--4-4-4--4-4-4-4-0-0-0-0-0---2-2-2---2-2--2--2-2---------------|
       Fig. 1 once
    E|----------------------------0-0-0--0-0--0-0-------------------|
    B|----------------------------0-0-0--0-0--0-0-------------------|
    G|-6-6-6--6-6-6-6-2-4-4-4-4-2-2-2-2--2-2--2-2-------------------|
    D|-6-6-6--6-6-6-6-2-4-4-4-4-2-2-2-2--2-2--2-2-2-4-2-2-2-4-2-2-2-|
    A|-4-4-4--4-4-4-4-0-2-2-2-2-0-0-0-0--0-0--0-0-2-4-2-2-2-4-2-2-2-|
    E|-4-4-4--4-4-4-4-0-2-2-2-2-0-----------------0-2-0-0-0-2-0-0-0-|

       INTERLUDE:-With Flanger and Volume Swell  
     Repeat 2 on second time     ^ delay with 7 repeat
    E|--0------0------0------0---0--|
    B|--0------0------0------0---0--|
    G|--4------4------4------4---6--|
    D|--2------2------2------2------|
    A|--4------4------4------4------|
    E|---------5-------------5------|

       ENDING: Distortion

    E|--------------------------------|
    B|--------------------------------|
    G|--6--6-6-6--6-6-4-4-4---4--4-4--|
    D|--6--6-6-6--6-6-2-2-2---2--2-2--|
    A|--4--4-4-4--4-4-0-0-0---0--0-0--|
    E|--4--4-4-4--4-4-0---------------|

    E|--------------------------------|
    B|--------------------------------|
    G|--6--6-6-6--6-6-4-4-4-4-----0---|
    D|--6--6-6-6--6-6-2-2-2-2-----0---|
    A|--4--4-4-4--4-4-0-0-0-0-2-------|
    E|--4--4-4-4--4-4-0-0-0-0-0-------|

    E|--------------------------------|
    B|--------------------------------|
    G|--6--6-6-6-6-9-9-9-9------4-4---|
    D|--6--6-6-6-6-9-9-9-9------2-2---|
    A|--4--4-4-4-4-7-7-7-7-9-9--0-0--4|
    E|--4--4-4-4-4-7-7-7-7-7-7-------4|

    E|--------------------------------|
    B|--------------------------------|
    G|--6--6-6-6--6-6-4-4-4-4---------|
    D|--6--6-6-6--6-6-2-2-2-2---2-----|
    A|--4--4-4-4--4-4-0-0-0-0---2-----|
    E|--4--4-4-4--4-4-0-0-0-0---0-----|
Comments