Incubus - Pardon Me Chords & Tabs

 

Pardon Me Chords & Tabs

Incubus Chords & Tabs

Version: 10 Type: Tab 0 ratings
1 star 2 stars 3 stars 4 stars 5 stars
comments

Pardon Me Tab

Song: Pardon Me
Artist: Incubus
Album: Make Yourself
Transcripter: x_myzery_x

Standard Tunning

INTRO PART A:

     Play this four times

    E|--0------0------0------0---0--|
    B|--0------0------0------0---0--|
    G|--4------4------4------4---4--|
    D|--2------2------2------2---2--|
    A|--4------0------4------0------|
    E|------------------------------|

     INTRO PART B:

    E|--4--4-4-4--4-4-0-0-0-0-0--0-0--|
    B|--4--4-4-4--4-4-0-0-0-0-0--0-0--|
    G|--6--6-6-6--6-6-2-2-2-2-2--2-2--|
    D|--6--6-6-6--6-6-2-2-2-2-2--2-2--|
    A|--4--4-4-4--4-4-0-0-0-0-0--0-0--|
    E|--------------------------------|

    E|--4--4-4-4--4-4-0-0-0-0-0--0-0--|
    B|--4--4-4-4--4-4-0-0-0-0-0--0-0--|
    G|--6--6-6-6--6-6-2-2-2-2-4--4-4--|
    D|--6--6-6-6--6-6-2-2-2-2-2--2-2--|
    A|--4--4-4-4--4-4-0-0-0-0-2--2-2--|
    E|------------------------0--0-0--|

    E|--4--4-4-4--4-4-0-0-0-0-0--0-0--|
    B|--4--4-4-4--4-4-0-0-0-0-0--0-0--|
    G|--6--6-6-6--6-6-2-2-2-2-2--2-2--|
    D|--6--6-6-6--6-6-2-2-2-2-2--2-2--|
    A|--4--4-4-4--4-4-0-0-0-0-0--0-0--|
    E|--------------------------------|

    E|--4--4-4-4-4/7-7-7-7------------|
    B|--4--4-4-4-4/7-7-7-7------------|
    G|--6--6-6-6-6/9-9-9-9------------|
    D|--6--6-6-6-6/9-9-9-9-9-9-9-7-7--|
    A|--4--4-4-4-4/7-7-7-7-9-9-9-7-7--|
    E|---------------------7-7-7-5-5--|

     VERSE:

     Not much guitar, I won't bother writing it out.

     PRE-CHORUS:
[ Tab from: http://www.guitartabs.cc/tabs/i/incubus/pardon_me_tab_ver_10.html ]
    E|--0------------------------------------------|
    B|--0------------------------------------------|
    G|--2-- hit this chord a whole bunch of times--|
    D|--2------------------------------------------|
    A|--0------------------------------------------|
    E|---------------------------------------------|

     CHORUS:

    E|--4-4-4--4-4-4-4-------------0-0--0-0--0-0--------------------|
    B|--4-4-4--4-4-4-4-------2-2---0-0--0-0--0-0--------------------|
    G|--6-6-6--6-6-6-6-4-4-4-4-4-2-2-2--2-2--2-2--------------------|
    D|--6-6-6--6-6-6-6-2-4-4-4-4-2-2-2--2-2--2-2-2-4-2-2-2-4-2-2-2--|
    A|--4-4-4--4-4-4-4-2-2-2-2-2-0-0-0--0-0--0-0-2-4-2-2-2-4-2-2-2--|
    E|-------------------------------------------0-2-0-0-0-2-0-0-0--|

    E|--4-4-4--4-4-4-4-------------0-0--0-0--0-0--------------------|
    B|--4-4-4--4-4-4-4-------2-2---0-0--0-0--0-0--------------------|
    G|--6-6-6--6-6-6-6-4-4-4-4-4-2-2-2--2-2--2-2--------------------|
    D|--6-6-6--6-6-6-6-2-4-4-4-4-2-2-2--2-2--2-2-2-4-2-2-2-4-2-2-2--|
    A|--4-4-4--4-4-4-4-2-2-2-2-2-0-0-0--0-0--0-0-2-4-2-2-2-4-2-2-2--|
    E|-------------------------------------------0-2-0-0-0-2-0-0-0--|

    E|--4-4-4--4-4-4-4-0-0-0-0--------------------------0-0-0-0-0-0--|
    B|--4-4-4--4-4-4-4-0-0-0-0--------------------0-0-0-0-0-0-0-0-0--|
    G|--6-6-6--6-6-6-6-2-2-2-2-/4-4-4-4--4-4-4-4--4-4-4-4-4-4-4-4-4--|
    D|--6-6-6--6-6-6-6-2-2-2-2-/4-4-4-4--4-4-4-4--4-4-4-4-4-4-4-4-4--|
    A|--4-4-4--4-4-4-4-0-0-0-0-/2-2-2-2--2-2-2-2--2-2-2-2-2-2-2-2-2--|
    E|-------------------------/2-2-2-2--2-2-2-2--2-2-2-2-2-2-2-2-2--|

    E|--4-4-4--4-4-4-4-0-0-0-0---------------------------------------|
    B|--4-4-4--4-4-4-4-0-0-0-0---------------------------------------|
    G|--6-6-6--6-6-6-6-2-2-2-2-/4-4-4-4--4-4-4-4---------------------|
    D|--6-6-6--6-6-6-6-2-2-2-2-/4-4-4-4--4-4-4-4--2-4-2-2-2-4-2-2-2--|
    A|--4-4-4--4-4-4-4-0-0-0-0-/2-2-2-2--2-2-2-2--2-4-2-2-2-4-2-2-2--|
    E|-------------------------/2-2-2-2--2-2-2-2--0-2-0-0-0-2-0-0-0--|
Comments