Incubus - Pardon Me (acoustic) Chords & Tabs

 

Pardon Me (acoustic) Chords & Tabs

Incubus Chords & Tabs

Version: 8 Type: Tab 0 ratings
1 star 2 stars 3 stars 4 stars 5 stars
comments

Pardon Me (acoustic) Tab

Intro:
|------------------------------------------------------------0---------
|----------0---------------0----------------0----------------0---------
|------4-----4---------4-----4----------4-----4---------4----4--4------
|----2---2-----2---------2-----2------2---2-----2---------2-------2----
|--4-------------4---4-----------4--4-------------4---4----------------
|------------------5--------------------------------5------------------


Pre-Verse:
|--4---4-4-4---0-0-0---4---4-4-4---0-0---------4--4-4-4---0-0-0--------
|--4---4-4-4---0-0-0---4---4-4-4---0-0---------4--4-4-4---0-0-0--------
|--6---6-6-6---2-2-2---6---6-6-6---2-2---------6--6-6-6---2-2-2--------
|--6---6-6-6---2-2-2---6---6-6-6---2-2--0-2----6--6-6-6---2-2-2--------
|--4---4-4-4---0-0-0---4---4-4-4---0-0--0-2----4--4-4-4---0-0-0--------
|--4---4-4-4-----------4---4-4-4----------0----4--4-4-4----------------

|--4--4-4-/-7--7-7-7--------------------------------------------------
|--4--4-4-/-7--7-7-7--------------------------------------------------
|--6--6-6-/-9--9-9-9--------------------------------------------------
|--6--6-6-/-9--9-9-9-----9----9-9-------------------------------------
|--4--4-4-/-7--7-7-7--7--9----7-7-------------------------------------
|--4--4-4-/-7--7-7-7-----7----5-5-------------------------------------




Verse 
|----------------------------------00-------------00----00-----------0----44--
|------77-----77-------------------00-------------00----00-----------0----44--
|------44-----44-----66-----66-----88-----88------99----99-------8--------44--
|---6--66-----66-----55-----55-----66-----88------77----77-----6----------66--
|----------7--77--6--66--6--66--4--44-----99---5--55--5-55---4------------66--
|--------------------------------------7--77---------------------------4--44--

|--------------------------------2-2-2-2-2|
|------99----99------77--------2-2-2-2-2-2|
|------88----88--------------4------------|
|------99----99------88----4--------------|
|---7--77--7-77--6---66---2---------------|
|-----------------------------------------|


Chorus
|--4-4-4-4-4-4-2-2-2-2-2-0-0-0-0-0-0---------------|
|--4-4-4-4-4-4-2-2-2-2-2-0-0-0-0-0-0---------------|
|--6-6-6-6-6-6-4-4-4-4-4-2-2-2-2-2-2---------------|
|--6-6-6-6-6-6-4-4-4-4-4-2-2-2-2-2-2--4-2-2-4-2-2--|
|--4-4-4-4-4-4-2-2-2-2-2-0-0-0-0-0-0--4-2-2-4-2-2--|
|-------------------------------------2-0-0-2-0-0--|

|--4-4-4-4-4-4-2-2-2-2-2-0-0-0-0-0-0---------------|
|--4-4-4-4-4-4-2-2-2-2-2-0-0-0-0-0-0---------------|
|--6-6-6-6-6-6-4-4-4-4-4-2-2-2-2-2-2---------------|
|--6-6-6-6-6-6-4-4-4-4-4-2-2-2-2-2-2--4-2-2-4-2-2--|
|--4-4-4-4-4-4-2-2-2-2-2-0-0-0-0-0-0--4-2-2-4-2-2--|
|-------------------------------------2-0-0-2-0-0--|

[ Tab from: http://www.guitartabs.cc/tabs/i/incubus/pardon_me_acoustic_tab_ver_8.html ]
|--4-4-4-4-4-4-0-0-0-0-0-0-2-2-2-2-2-2-2-2-2-2-2-2-2--|
|--4-4-4-4-4-4-0-0-0-0-0-0-2-2-2-2-2-2-2-2-2-2-2-2-2--|
|--6-6-6-6-6-6-2-2-2-2-2-2-4-4-4-4-4-4-4-4-4-4-4-4-4--|
|--6-6-6-6-6-6-2-2-2-2-2-2-4-4-4-4-4-4-4-4-4-4-4-4-4--|
|--4-4-4-4-4-4-0-0-0-0-0-0-2-2-2-2-2-2-2-2-2-2-2-2-2--|
|-----------------------------------------------------|

|--4-4-4-4-4-4-0-0-0-0-0-2-2-2-2-2-2---------------|
|--4-4-4-4-4-4-0-0-0-0-0-2-2-2-2-2-2---------------|
|--6-6-6-6-6-6-2-2-2-2-2-4-4-4-4-4-4---------------|
|--6-6-6-6-6-6-2-2-2-2-2-4-4-4-4-4-4--4-2-2-4-2-2--|
|--4-4-4-4-4-4-0-0-0-0-0-2-2-2-2-2-2--4-2-2-4-2-2--|
|-------------------------------------2-0-0-2-0-0--|

Interlude
|----x---x---x---|----------------|
|----x---x---x---|----------------|
|----x---x---x---|----x---x---x---|
|6-6-x---x---x-22|6-6-x---x---x-22|
|6-6-x---x---x-22|6-6-x---x---x-22|
|4-4-x---x---x-00|4-4-x---x---x-00|



Last Chorus

|--4-4-4-4-4-4-2-2-2-2-2-0-0-0-0-0-0---------------|
|--4-4-4-4-4-4-2-2-2-2-2-0-0-0-0-0-0---------------|
|--6-6-6-6-6-6-4-4-4-4-4-2-2-2-2-2-2---------------|
|--6-6-6-6-6-6-4-4-4-4-4-2-2-2-2-2-2--4-2-2-4-2-2--|
|--4-4-4-4-4-4-2-2-2-2-2-0-0-0-0-0-0--4-2-2-4-2-2--|
|-------------------------------------2-0-0-2-0-0--|

|--4-4-4-4-4-4-2-2-2-2-2-0-0-0-0-0-0---------------|
|--4-4-4-4-4-4-2-2-2-2-2-0-0-0-0-0-0---------------|
|--6-6-6-6-6-6-4-4-4-4-4-2-2-2-2-2-2---------------|
|--6-6-6-6-6-6-4-4-4-4-4-2-2-2-2-2-2--4-2-2-4-2-2--|
|--4-4-4-4-4-4-2-2-2-2-2-0-0-0-0-0-0--4-2-2-4-2-2--|
|-------------------------------------2-0-0-2-0-0--|

|--4-4-4-4-4-4-0-0-0-0-0-0-2-2-2-2-2-2-2-2-2-2-2-2-2--|
|--4-4-4-4-4-4-0-0-0-0-0-0-2-2-2-2-2-2-2-2-2-2-2-2-2--|
|--6-6-6-6-6-6-2-2-2-2-2-2-4-4-4-4-4-4-4-4-4-4-4-4-4--|
|--6-6-6-6-6-6-2-2-2-2-2-2-4-4-4-4-4-4-4-4-4-4-4-4-4--|
|--4-4-4-4-4-4-0-0-0-0-0-0-2-2-2-2-2-2-2-2-2-2-2-2-2--|
|-----------------------------------------------------|

|--4-4-4-4-4-4-0-0-0-0-0-2-2-2-2-2-2---------------|
|--4-4-4-4-4-4-0-0-0-0-0-2-2-2-2-2-2---------------|
|--6-6-6-6-6-6-2-2-2-2-2-4-4-4-4-4-4---------------|
|--6-6-6-6-6-6-2-2-2-2-2-4-4-4-4-4-4--4-2-2-4-2-2--|
|--4-4-4-4-4-4-0-0-0-0-0-2-2-2-2-2-2--4-2-2-4-2-2--|
--------------------------------------2-0-0-2-0-0--|

|--4-4-4-4-4-4--------------|
|--4-4-4-4-4-4--------------|
|--6-6-6-6-6-6-2-2-2-2-2-2--|
|--6-6-6-6-6-6-2-2-2-2-2-2--|
|--4-4-4-4-4-4-0-0-0-0-0-0--|
|---------------------------|

|--4-4-4-4-4-4----------------|
|--4-4-4-4-4-4----------------|
|--6-6-6-6-6-6-2-2-2-2-2-2----|
|--6-6-6-6-6-6-2-2-2-2-2-2-2--|
|--4-4-4-4-4-4-0-0-0-0-0-0-2--|
|--------------------------0--|

|--4-4-4-4-4-4---------------|
|--4-4-4-4-4-4---------------|
|--6-6-6-6-6-6-9-9-----------|
|--6-6-6-6-6-6-9-9-9-9--9-9--|
|--4-4-4-4-4-4-7-7-9-9--7-7--|
|------------------7-7--5-5--|

|-------------------------|
|-------------------------|
|--6-6-6-6-6-6-2-2-2-2----|
|--6-6-6-6-6-6-2-2-2-2-2--|
|--4-4-4-4-4-4-0-0-0-0-2--|
Comments