Incubus - Pardon Me (acoustic) Chords & Tabs

 

Pardon Me (acoustic) Chords & Tabs

Incubus Chords & Tabs

Version: 1 Type: Tab 0 ratings
1 star 2 stars 3 stars 4 stars 5 stars
comments

Pardon Me (acoustic) Tab

   
This is not 100% but it sounds pretty good, If you went to Athens 
Drive High in Raleigh, North Carolina you would probably find me 
playing this song in the hallways always representin' the Seniors.

C/O 2001!!!! 

Please send corrections to illson_2k@yahoo.com



^=upstroke 
\=slide
%=downstroke 
p=pulloff 

INTRO                                                         % ^                                                 
E|------------------------------------------------------------0-0---|
B|--------0----------------0----------------0-----------------0-0---|
G|----4-----4-----------4----4----------4-----4---------4-----4-4---|
D|--2---2-----2-------2---2----2------2---2-----2-----2---2---2-2---|
A|4-------------4---0------------0--4-------------4-0---------------|
E|------------------------------------------------------------------|
                                                              % ^ 
E|------------------------------------------------------------0-0---|
B|--------0----------------0----------------0-----------------0-0---|
G|----4-----4-----------4----4----------4-----4---------4-----4-4---|
D|--2---2-----2-------2---2----2------2---2-----2-----2---2---2-2---|
A|4-------------4---0------------0--4-------------4-0---------------|
E|------------------------------------------------------------------|

E|--------------0----------------------------------0----------------------|
B|--------------0----------------------------------0----------------------|
G|6-666-66--222-2--6-666-66--222-----6-666-66--222-2--6-666-66--99--------|
D|6-666-66--222-2--6-666-66--222-----6-666-66--222-2--6-666-66--99-99-77--|
A|4-444-44--000-0--4-444-44--000-2---4-444-44--000-0--4-444-44--77-99-77--|
E|-------------------------------0---------------------------------77-55--|

VERSE 1
E|-------------------------------------00-------------00----00-----------0----44--|
B|------77-----77----------------------00-------------00----00-----------0----44--|
G|------44-----44------66-----66-------88-----88------99----99-------8--------44--|
D|---6--66-----66------55-----55-------66-----99------77----77-----6----------66--|
A|----------7--77-7/6--66--6--66-6p4-4-44-----99---5--55--5-55---4------------66--|
E|-----------------------------------------7--77---------------------------4--44--|
                                 

                               ^ %     %^%^%^%^%^%^%^
E|--------------------------0--0-0-----00000000000000-------|
B|-----99----99---77--------0--0-0-----00000000000000-------|
G|-----88----88---xx-------4---4-4\2---22222222222222-------|
D|-----99----99---88------4----4-4\2---22222222222222-------|
A|--7--77--7-77-6-66-6\2-2-----2-2-----00000000000000-------|
E|----------------------------------------------------------|

CHORUS      %%%  % ^ % ^ % %     ^ %^% ^ %^%
E|---------------0-0-0-0-0-0-----------------|
B|---------------0-0-0-0-0-0-----------------|
G|6-666-66--444--2-2-2-2-2-2-----------------|
D|6-666-66--444--2-2-2-2-2-2-----------------|
A|4-444-44--222--0-0-0-0-0-0-----4-222-4-222-|
E|-------------------------------2-000-2-000-|                
                 
            %%%  % ^ % ^ % %     ^ %^% ^ %^%
E|---------------0-0-0-0-0-0-----------------|-----------0------------0-----------|
B|---------------0-0-0-0-0-0-----------------|-----------0------------0-----------|
G|6-666-66--444--2-2-2-2-2-2-----------------|-6-666-66-22----44444444444444------|
D|6-666-66--444--2-2-2-2-2-2-----------------|-6-666-66-22----44444444444444------|
A|4-444-44--222--0-0-0-0-0-0-----4-222-4-222-|-4-444-44-00----22222222222222------|
E|-------------------------------2-000-2-000-|------------------------------------|

E|-----------0------------------|
B|-----------0------------------|
G|-6-666-66-22---444444444------|
D|-6-666-66-22---444444444------|
A|-4-444-44-00---222222222------|
E|------------------------------|


E|--------------------------------------|
B|--------------------------------------|
G|--------------------------------------|
D|--------------------------------------|
A|--4-222-4-222--66---2222---6666---2222|
E|--2-000-2-000--44---0000---4444---0000|


VERSE 2
E|-------------------------------------00-------------00----00-----------0----44--|
B|------77-----77----------------------00-------------00----00-----------0----44--|
G|------44-----44------66-----66-------88-----88------99----99-------8--------44--|
D|---6--66-----66------55-----55-------66-----99------77----77-----6----------66--|
A|----------7--77-7/6--66--6--66-6p4-4-44-----99---5--55--5-55---4------------66--|
E|-----------------------------------------7--77---------------------------4--44--|
                                 

                               ^ %     %^%^%^%^%^%^%^
E|--------------------------0--0-0-----00000000000000-------|
B|-----99----99---77--------0--0-0-----00000000000000-------|
G|-----88----88---xx-------4---4-4\2---22222222222222-------|
D|-----99----99---88------4----4-4\2---22222222222222-------|
A|--7--77--7-77-6-66-6\2-2-----2-2-----00000000000000-------|
E|----------------------------------------------------------|
[ Tab from: http://www.guitartabs.cc/tabs/i/incubus/pardon_me_acoustic_tab.html ]
CHORUS      %%%  % ^ % ^ % %     ^ %^% ^ %^%
E|---------------0-0-0-0-0-0-----------------|
B|---------------0-0-0-0-0-0-----------------|
G|6-666-66--444--2-2-2-2-2-2-----------------|
D|6-666-66--444--2-2-2-2-2-2-----------------|
A|4-444-44--222--0-0-0-0-0-0-----4-222-4-222-|
E|-------------------------------2-000-2-000-|                
                 
            %%%  % ^ % ^ % %     ^ %^% ^ %^%
E|---------------0-0-0-0-0-0-----------------|-----------0------------0-----------|
B|---------------0-0-0-0-0-0-----------------|-----------0------------0-----------|
G|6-666-66--444--2-2-2-2-2-2-----------------|-6-666-66-22----44444444444444------|
D|6-666-66--444--2-2-2-2-2-2-----------------|-6-666-66-22----44444444444444------|
A|4-444-44--222--0-0-0-0-0-0-----4-222-4-222-|-4-444-44-00----22222222222222------|
E|-------------------------------2-000-2-000-|------------------------------------|
                             ^ %^% ^ %^%  
E|-----------0----------------------------|
B|-----------0----------------------------|
G|-6-666-66-22---444444444----------------|
D|-6-666-66-22---444444444----------------|
A|-4-444-44-00---222222222---4-222-4-222--|
E|---------------------------2-000-2-000--|

E|------------------------------------------------------------0-----|
B|--------0----------------0----------------0-----------------0-----|
G|----4-----4-----------4----4----------4-----4---------4-----4-----|
D|--2---2-----2-------2---2----2------2---2-----2-----2---2---2-----|
A|4-------------4---0------------0--4-------------4-0---------------|
E|------------------------------------------------------------------|
                                                                
E|------------------------------------------------------------0-----|
B|--------0----------------0----------------0-----------------0-----|
G|----4-----4-----------4----4----------4-----4---------4-----4-----|
D|--2---2-----2-------2---2----2------2---2-----2-----2---2---2-----|
A|4-------------4---0------------0--4-------------4-0---------------|
E|------------------------------------------------------------------|
                               
E|------------------------------------------------------------0-----|
B|--------0----------------0----------------0-----------------0-----|
G|----4-----4-----------4----4----------4-----4---------4-----4-----|
D|--2---2-----2-------2---2----2------2---2-----2-----2---2---2-----|
A|4-------------4---0------------0--4-------------4-0---------------|
E|------------------------------------------------------------------|
                                                               
E|------------------------------------------------------------0-----|
B|--------0----------------0----------------0-----------------0-----|
G|----4-----4-----------4----4----------4-----4---------4-----4-----|
D|--2---2-----2-------2---2----2------2---2-----2-----2---2---2-----|
A|4-------------4---0------------0--4-------------4-0---------------|
E|------------------------------------------------------------------|

E|----0----0----0-------|
B|---0-0--0-0--0-0------|
G|--6-------6-----------|
D|----------------------|
A|----------------------|
E|----------------------|

CHORUS      %%%  % ^ % ^ % %     ^ %^% ^ %^%
E|---------------0-0-0-0-0-0-----------------|
B|---------------0-0-0-0-0-0-----------------|
G|6-666-66--444--2-2-2-2-2-2-----------------|
D|6-666-66--444--2-2-2-2-2-2-----------------|
A|4-444-44--222--0-0-0-0-0-0-----4-222-4-222-|
E|-------------------------------2-000-2-000-|                
                 
            %%%  % ^ % ^ % %     ^ %^% ^ %^%
E|---------------0-0-0-0-0-0-----------------|-----------0------------0-----------|
B|---------------0-0-0-0-0-0-----------------|-----------0------------0-----------|
G|6-666-66--444--2-2-2-2-2-2-----------------|-6-666-66-22----44444444444444------|
D|6-666-66--444--2-2-2-2-2-2-----------------|-6-666-66-22----44444444444444------|
A|4-444-44--222--0-0-0-0-0-0-----4-222-4-222-|-4-444-44-00----22222222222222------|
E|-------------------------------2-000-2-000-|------------------------------------|
                             ^ %^% ^ %^%
E|-----------0----------------------------|
B|-----------0----------------------------|
G|-6-666-66-22---444444444----------------|
D|-6-666-66-22---444444444----------------|
A|-4-444-44-00---222222222---4-222-4-222--|
E|---------------------------2-000-2-000--|
                         ^ %^% ^ %^% %%    %^%%   %^%%   %^%%
E|-----------------------------------------------------------|
B|-----------------------------------------------------------|
G|6-666-66--22-44--4--4--------------------------------------|
D|6-666-44--22-22--4--4--------------------------------------|
A|4-444-44--00-22--2--2--4-222-4-222--66---2222---6666---2222|
E|-----------------------2-000-2-000--44---0000---4444---0000|

E|--------------0-----------------------------------------------------------|
B|--------------0-----------------------------------------------------------|
G|6-666-66--222-2--6-666-66--222-----6-666-66--99----------6-666-66-222-----|
D|6-666-66--222-2--6-666-66--222-----6-666-66--99----------6-666-66-222-----|
A|4-444-44--000-0--4-444-44--000-2---4-444-44--77--99-77---4-444-44-000--2--|
E|-------------------------------0-----------------77-55-----------------0--|

Comments