Incubus - Pantomime Chords & Tabs

 

Pantomime Chords & Tabs

Incubus Chords & Tabs

Version: 2 Type: Tab 0 ratings
1 star 2 stars 3 stars 4 stars 5 stars
comments

Pantomime Tab

The Strum Patterns Aren't Correct But It's Easy Enough To Pick Up.
It's A Very Easy Song, I Don't Think I Screwed It Up Too Bad.


Intro PT1   (Verse)
e|-----------------------------------------------|
B|-----------------------------------------------|
G|-----------------------------------------------|
D|-6-6-6-6-6--5-5-5-5-5--6-6-6-6-6--3--3--3------|
A|-6-6-6-6-6--5-5-5-5-5--6-6-6-6-6--3--3--3------|
E|-4-4-4-4-4--3-3-3-3-3--4-4-4-4-4--1--1--1------|

Repeat Accorddingly For Verse


Intro PT2   (Verse End)
e|-----------------------------------------------|
B|-----------------------------------------------|
G|-----------------------------------------------|
D|-6-6-6-6-6--5-5-5-5-5--6-6-6-6-6--x--x--x------|
A|-6-6-6-6-6--5-5-5-5-5--6-6-6-6-6--x--x--x------|
E|-4-4-4-4-4--3-3-3-3-3--4-4-4-4-4--x--x--x------|

Chorus
e|-----------------------------------------------|
B|-----------------------------------------------|
G|-----------------------------------------------|
D|-8-8-8-8-8------6-6-6-6-6----------------------|X2
A|-8-8-8-8-8--X4--6-6-6-6-6--X4------------------|
E|-6-6-6-6-6------4-4-4-4-4----------------------|


[ Tab from: http://www.guitartabs.cc/tabs/i/incubus/pantomime_tab_ver_2.html ]
e|-----------------------------------------------|
B|-----------------------------------------------|
G|-----------------------------------------------|
D|-8-8-8-8-8-------------------------------------|
A|-8-8-8-8-8-------------------------------------|
E|-6-6-6-6-6-------------------------------------|
   x x x x x = Palm Mute

Repeat Untill Chorus


End Chorus/Wahling

e|-----------------------------------------------|
B|-----------------------------------------------|
G|-----------------------------------------------|
D|-8-8-8-8-8------6-6-6-6-6----------------------|X2
A|-8-8-8-8-8--X4--6-6-6-6-6--X4------------------|
E|-6-6-6-6-6------4-4-4-4-4----------------------|

e|-----------------------------------------------|
B|-----------------------------------------------|
G|-----------------------------------------------|
D|-8-8-8-8-8------6--6--6--6--6--6--6-6-6-6------|X2
A|-8-8-8-8-8--X4--6--6--6--6--6--6--6-6-6-6------|
E|-6-6-6-6-6------4--4--4--4--4--4--4-4-4-4------|

e|-----------------------------------------------|
B|-----------------------------------------------|
G|-----------------------------------------------|
D|-8-8-8-8-8------6-6-6-6-6----------------------|X2
A|-8-8-8-8-8--X4--6-6-6-6-6--X4------------------|
E|-6-6-6-6-6------4-4-4-4-4----------------------|

Repeat Chorus Accordingly


Outro
e|-----------------------------------------------|
B|-----------------------------------------------|
G|-----------------------------------------------|
D|----6---8-----6-----8--------------------------|
A|----6---8----6----8----------------------------|
E|----4---6---4---6------------------------------|


Strum Slower As End Draws Closer

(Brandon Plays Around With the Last 2 Power Chords
At The End Of The Song For A While)

That's It, Have Fun
Comments