Incubus - Nowhere Fast Chords & Tabs

 

Nowhere Fast Chords & Tabs

Incubus Chords & Tabs

Version: 6 Type: Tab 0 ratings
1 star 2 stars 3 stars 4 stars 5 stars
comments

Nowhere Fast Tab

Song: Nowhere Fast	
Artist: Incubus
Album: Make Yourself
Tabbed by: Andrew (kraftkid182) kraftkid87@hotmail.com
Tuning: Dropped D
Effects: Phaser, Delay

Intro pt. 1 clean w/ phaser

E----------------------------------------------------------------------------------------------------------
B-----------------------------------------------------------------------------------------------------------
G---------------00------------------------------------------------------------------------------------------
D-------------------44---------------3-3-3-3/-8-8-8-8---------------------------------------------------- play 4 times
A--------------------------00--------3-3-3-3/-8-8-8-8----------------------------------------------------
D-------------------------------00---3-3-3-3/-8-8-8-8----------------------------------------------------

Intro pt. 2 Kick in fat gain, phaser off

E--------x--x--x------------------------------------------------------------------------------------
B--------x--x--x------------------------------------------------------------------------------------
G--------x--x--x-----------------------------------------------------------------------------------
D--------x--x--x----4-4-4-4-4----3-3-3-3/-8-8-8-8-------------------------------------------- play three times then 
A--------x--x--x----0-0-0-0-0----3-3-3-3/-8-8-8-8--------------------------------------------
D--------x--x--x----0-0-0-0-0----3-3-3-3/-8-8-8-8--------------------------------------------

E--------------------------------------------
B-------------------------------------------
G--------------------5-5-5-5--------------
D-----4-4-4-4-4---5-5-5-5--3-3---------
A-----0-0-0-0-0---3-3-3-3--3-3---------
D-----0-0-0-0-0--------------3-3---------

Verses, clean with phaser and delay
[ Tab from: http://www.guitartabs.cc/tabs/i/incubus/nowhere_fast_tab_ver_6.html ]
E------2-------14------------------------------------------2-----14---------------------------------------
B------2-----------------10--------------------------------2-------------10----11----7--------------------
G------2------------------9-------11s12s11s12----------2--------------9----10----6--------------------
D--------------------------------------------------------------------------------------------------------------
A-------------------------------------------------------------------------------------------------------------
D-------------------------10----------------------------------------------10----11----7--------------------
						     Pick these chords finger style

Prechorus, volume swells with phaser

E-----------------------------------------------------------------------------
B-----------------------------------------------------------------------------
G----7>----10>---7>----12>----------------------------------------------
D----7>----10>---7>----12>----------------------------------------------
A----5>----8>----5>----10>----------------------------------------------
D----5>----8>----5>----10>----------------------------------------------

Chorus, same as Intro pt. 2




Sitar solo, play with phaser


E----------------------9-----7--------------------------------------------- ---
B------------------7-----7-----7---------------------------------8-------------
G--------------------6-----7-----7----------7-----------------10---10-------- 
D-----5---5/7----------------------------7-----7---7--------10--------10----
A---0---0------0----------------------5---5-----5----------8-------------8--- 
D-0---------------------------------5---------------(5)/8----------------------           then 

E-------------------------------------------------------------
B-------------------------------------------------------------
G--9/11-11-14-14-11-9-7-6/7-7-6/7-7------------------
D--9/11-11-14-14-11-9-7-6/7-7-6/7-7---3-2-0-0------
A--7/9--9---12-12-9--7-5-4/5-5-4/5-5---3-2-0-0-------
D---------------------------------------------3-2-0-0-------

then 
E---------------------------------------------------------------------- 
B----------------------------------------------------------------------
G--9/11-11-14-14-11-9-7-10-10-10-10-10-10-10-10-10-10--
D--9/11-11-14-14-11-9-7-10-10-10-10-10-10-10-10-10-10--
A--7/9--9--12-12--9--7-5--8--8--8--8--8--8--8--8--8--8- -8----
D------------------------------8--8--8--8--8--8--8 8 8 8 8----

Back to intro pt. 1 then chorus but play this the last few times then end on

E---------------------------------------------------------------			               E-------
B---------------------------------------------------------------			B-------
G------------------5-5-5-5------------------------------------			G-------
D---4-4-4-4-4---5-5-5-5--3-3-------------------------------			D4---
A---0-0-0-0-0---3-3-3-3--3-3--------------------------------			A0---
D---0-0-0-0-0--------------3-3--------------------------------			D0---

Comments