Incubus - Nowhere Fast Chords & Tabs

 

Nowhere Fast Chords & Tabs

Incubus Chords & Tabs

Version: 5 Type: Tab 0 ratings
1 star 2 stars 3 stars 4 stars 5 stars
comments

Nowhere Fast Tab

Name: Steven Carey

Tabs: Song: Nowhere Fast
Writen by: Incubus	
Tabbed by: Steven Carey (aakornnut999@hotmail.com)
Solo Tabbed by : Ryan Hedenauer (kingnothing5.28@juno.com)

I was looking for Incubus tabs and the ones I found are crap. So I did 
it myself and I know its right. 

Droped D tuning
Effects: Phasor, Delay, Distortion

Intro:
(with phasor)
e:-----------------------------
B:-----------------------------
G:--0-0------------------------
D:------4-4--------------------
A:----------0-0-----3333/8888--
D:--------------0-0-3333/8888--

Chorus:
(with distortion)
e:---------------------         e:---------------------
B:--7~-----------------         B:--7~-----------------
G:--6~-----------------         G:--6~------5555-------
D:--0-00-00-3333/8888-- x3 then D:--0-00-00-5555-3333--
A:--0-00-00-3333/8888--         A:--0-00-00-3333-3333--
D:--0-00-00-3333/8888--         D:--0-00-00------3333--

Verse:
(with phasor and delay)
makes sure to not let the notes ring except for when it is shown to let 
them ring, palm mute them right after you strike it
e:------14------------14------------------
B:----------------------------------------
G:--11------14---------11------14~15~16~--
D:--11------14--16h17--11------14~15~16~--
A:----------------------------------------
D:----------------------------------------
[ Tab from: http://www.guitartabs.cc/tabs/i/incubus/nowhere_fast_tab_ver_5.html ]
Bridge:
(with phasor and delay)
fade the notes in with your volume nob (this sounds really good with 
the delay)
e:---------------------------------------------
B:---------------------------------------------
G:---------------------------------------------
D:--5<<<<<<<8<<<<<<<5<<<<<<<10<<<<<<<10-10-10--
A:--5<<<<<<<8<<<<<<<5<<<<<<<10<<<<<<<10-10-10--
D:--5<<<<<<<8<<<<<<<5<<<<<<<10<<<<<<<10-10-10--
				     *break into distortion here

Solo:
(with phasor)
e:--------------------9-----7----------------------------------------
B:--------------7-------7-----7------------5----------------8-7------
G:----------------6-------7-----7------------7------------------7----
D:------5---5/7-----4------------------5-------7--------8---------7--
A:----5---5--------------------------5---5-------5----8---8----------
D:--5------------------------------5----------------8----------------

then
e:----------------------------------------------
B:----------------------------------------------
G:--9/11-11-14-14-11-9-7-6/7-7-6/7-7-3-3--------
D:--9/11-11-14-14-11-9-7-6/7-7-6/7-7-3-3-0-0-0--
A:--7/9--9--12-12-9--7-5-4/5-5-4/5-5-1-1-0-0-0--
D:---------------------------------------0-0-0--

then
e:--------------------------------------------
B:--------------------------------------------
G:--9/11-11-14-14-11-9-7-3-3-3-3-3-3-3-3-3-3--
D:--9/11-11-14-14-11-9-7-3-3-3-3-3-3-3-3-3-3--
A:--7/9--9--12-12-9--7-5-1-1-1-1-1-1-1-1-1-1--
D:--------------------------------------------

Comments