Incubus - Nowhere Fast Chords & Tabs

 

Nowhere Fast Chords & Tabs

Incubus Chords & Tabs

Version: 4 Type: Tab 0 ratings
1 star 2 stars 3 stars 4 stars 5 stars
comments

Nowhere Fast Tab

   
name: Peter 

artist: Incubus

SongTitle: "Nowhere Fast"

Tabs: Mike uses many pedals in this song but I'm still not sure what 
kind her uses I think he use a phaser and a delay. 
Tuning: D A D G B e


Intro/riff 1

E: ------------------------------------------------------------
B: ------------------------------------------------------------
G:-0-0----------------------- 0-0---------------------------
D: ------4-4-0-0------------------4-4-0-0------------------
A: -----------------------------------------------------------
D: ---------------0-0-3-3-8-8-------------0-0-3-3-8-8-

Chorus/riff 2
[ Tab from: http://www.guitartabs.cc/tabs/i/incubus/nowhere_fast_tab_ver_4.html ]
E: -----------------------------------------------------------
B: -----------------------------------------------------------
G: ----------------------------------------------------------
D: ----------------------------------------------------------
A:-0-0-3-3-8-8------0-0-3-3-8-8---0-0-3-3-8-8------
D:-0-0-3-3-8-8------0-0-3-3-8-8---0-0-3-3-8-8------

Verse: I am not sure what Mike plays cause there to my pedals it is 
confusing
But I know at one part its
E: -----11-11-11-11

Riff 3
e: 
--------------------------------------------------------------------|    ( then just strum ) 
B: -----------2 -----------2-------------4----------------4----------|
G: ------4 -----------4 ------------6---------------6----------------|
D: - --4 --4 ---4-4-4---4---6---6----6----6----6--------------|
A: - 0------------0---------------------------------------------------|
D: -----------------------------0-------------0-----------------------|


Arrangement

Riff 1 X4
Riff 2 x4
Verse
Riff 2 x4
Riff 3 x2
Riff 1 x1
Riff 2 x4


---------------------------------------------------------------------------
Comments