Incubus - Nice To Know You Chords & Tabs

 

Nice To Know You Chords & Tabs

Incubus Chords & Tabs

Version: 9 Type: Tab 0 ratings
1 star 2 stars 3 stars 4 stars 5 stars
comments

Nice To Know You Tab

   
Artist: Incubus
Song: Nice to Know You
Album: Morning View

This is by far the best song on Morning View. It is there second single and should of 
been their first.This is 100% correct. I watched Mike and saw his hands.

Standard Tuning: e,a,d,g,b,e

Intro and verses (clean elec. w/delay and flanger)

   F#m(add4)
e|-----7-------7-----7-----------------
B|-----10------10----10----------------
G|-----11------11----11----------------
D|-------------------------------------
A|----Play for about 38 seconds--------
E|-------------------------------------

Chorus (w/dist)

      F#5 D5/a                                  A5
e|-------------------------------------------------------
B|-------------------------------------------------------
G|---------7-7--------------------7-7-----------7-7------
D|-----4-4-7-7--------4-4-----4-4-7-7-------4-4-7-7------
A|--0--4-4-5-5--0-0-0-4-4---0-4-4-5-5-0-0-0-4-4-7-7------
E|--0--2-2-5-5--0-0-0-2-2---0-2-2-5-5-0-0-0-2-2-5-5------

Verse same as Intro

PreChorus (clean elec)               Only after 1st time  
[ Tab from: http://www.guitartabs.cc/tabs/i/incubus/nice_to_know_you_tab_ver_9.html ]
     Asus2    E/A      G6     F#7add4  D5/a E5 
e|--0-0-0-0--0-0-0-0---0-0-0----0-0-0- /-----------
B|--0-0-0-0--0-0-0-0---0-0-0----0-0-0- /-----------
G|--2-2-2-2--1-1-1-0-4-4-4-4--3-3-3-3- /-7---------
D|--2-2-2-2--2-2-2---5-5-5-5--4-4-4-4- /-7----2---- X2
A|--0-0-0-0--0-0-0---5-5-5-5--4-4-4-4- /-5--2-2----
E|-------------------3-3-3-3--2-2-2-2- /-5--0-0----

Bridge (Clean elec)

           Dadd4/6    Cmaj7                             A5 
e|-------------------0-0-0-0------------------0-------0-0-0
B|-----------0-0---0-0-0-0-0------------0---0-0-------0-0-0
G|-----------0-0---0-0-0-0-0----------0-0-0-0-0-------2-2-2
D|---------4-4-4-2-2-2-2-2-2----------4-4-2-2-2-2-4-4-2-2-2
A|-0-3-5-0-5---5-3---3-3-3-3--0-3-5-3-5-5-3-3-3-3-5-5-0-0-0
E|---------------------------------------------------------

e|---------------------0-0-0-----------------0-0-------0-0-
B|---------------0-0---0-3-0--------------0--0-0-------0-0-
G|-------------0---0---0-0-0-------------0-0-0-0-------2-2-
D|-----------4-------2-2-2-2-----------4-----2-2-2-4-4-2-2-
A|-0-3-5-0-5---------3-3-3-3-0-3-5-3-5-------3-3-3-5-5-0-0-
E|---------------------------------------------------------

Ending

"... to know you"
e|-----0-0-0--------
B|-----0-0-0--------
G|---4-2-2-2--------
D|---4-2-2-2--------
A|-0-2-0-0-0--------
E|-0-2--------------
Comments