Incubus - Nice To Know You Chords & Tabs

 

Nice To Know You Chords & Tabs

Incubus Chords & Tabs

Version: 6 Type: Tab 0 ratings
1 star 2 stars 3 stars 4 stars 5 stars
comments

Nice To Know You Tab

   
Artist: Incubus
Song: Nice To Know You
Album: Morning View
Tabbed by: Mikey (msabell@mbox.com.au)


*drop-d tuning*
(low to high: d-A-d-G-B-E)




INTRO (w/distortion)
E |-------------------------------------------------------------------|
B |-------------------------------------------------------------------|
G |o-----------------------------------------------------------------o|
D |o-----------------------------------------------------------------o|
A |------2/4-4-0-0---0-0-2/4-4---2/4-4-0-0---0-0-2/4-4-4-4----7-7-----|
D |------2/4-4-0-0---0-0-2/4-4---2/4-4-0-0---0-0-2/4-4-4-4-0--7-7-----|
    (play x 4)



VERSE
(scratching, drums)



PRE-CHORUS (clean tone)
E |-----0----0----0--0--0--0-0--0----0----0--0--0--0-0-----|
B |-----0----0----0--0--0--0-0--0----0----0--0--0--0-0-----|
G |-----2----2----2--2--2--2-2--1----1----1--1--1--1-1-----|
D |-----2----2----2--2--2--2-2--2----2----2--2--2--2-2-----|
A |--------------------------------------------------------|
D |--------------------------------------------------------|

E |-----0----0----0--0--0--0-0--0----0----0--0-------------|
B |-----0----0----0--0--0--0-0--0----0----0--0-------------|
G |-----0----0----0--0--0--0-0--0----0----0--0-------------|
D |-----5----5----5--5--5--5-5--4----4----4--4-------------|
A |-----5----5----5--5--5--5-5--4----4----4--4--2-2/4-4----|
D |-----5----5----5--5--5--5-5--4----4----4--4--2-2/4-4----|

E |-----0----0----0--0--0--0-0--0----0----0--0--0--0-0-----|
B |-----0----0----0--0--0--0-0--0----0----0--0--0--0-0-----|
G |-----2----2----2--2--2--2-2--1----1----1--1--1--1-1-----|
D |-----2----2----2--2--2--2-2--2----2----2--2--2--2-2-----|
A |--------------------------------------------------------|
D |--------------------------------------------------------|

E |-----0----0----0--0--0--0-0--0----0----0--0-------------|
B |-----0----0----0--0--0--0-0--0----0----0--0-------------|
G |-----0----0----0--0--0--0-0--0----0----0--0-------------|
D |-----5----5----5--5--5--5-5--4----4----4--4--4-4-4-4----|
A |-----5----5----5--5--5--5-5--4----4----4--4--4-4-4-4----|
D |-----5----5----5--5--5--5-5--4----4----4--4--4-4-4-4----|



CHORUS 1 (w/distortion)
E |-------------------------------------------------------------------|
B |-------------------------------------------------------------------|
G |o-----------------------------------------------------------------o|
D |o-----------------------------------------------------------------o|
A |------2/4-4-0-0---0-0-2/4-4---2/4-4-0-0---0-0-2/4-4-4-4----7-7-----|
D |------2/4-4-0-0---0-0-2/4-4---2/4-4-0-0---0-0-2/4-4-4-4-0--7-7-----|
    (play x 4)



   repeat VERSE
   repeat PRE-CHORUS



CHORUS 2 (w/distortion)
E |--------------------------------------------------------------------|
B |--------------------------------------------------------------------|
G |o------------------------------------------------------------------o|
D |o------------------------------------------------------------------o|
A |------2/4-4-0-0---0-0-2/4-4---2/4-4-0-0---0-0-2/4-4-4-4----7-7------|
D |------2/4-4-0-0---0-0-2/4-4---2/4-4-0-0---0-0-2/4-4-4-4-0--7-7------|
    (play x 3)

E |-----------------------------------------------------------------|
B |-----------------------------------------------------------------|
G |-----------------------------------------------------------------|
D |-----------------------------------------------------------------|
A |------2/4-4-0-0---0-0-2/4-4---2/4-4-0-0---0-0-2/4-4--0-3-5-0-----|
D |------2/4-4-0-0---0-0-2/4-4---2/4-4-0-0---0-0-2/4-4--------------|
                                                        ^distortion off
[ Tab from: http://www.guitartabs.cc/tabs/i/incubus/nice_to_know_you_tab_ver_6.html ]



BRIDGE
E |-----------0-----------0---0---------0---0--0----------0---------------|
B |-----------0---0-------0---0---------0---0--0-0--0-----0---------------|
G |------0----0-0-0--0----0-0-0---0--0--0-0-0--0-0--0-0-0-0---------------|
D |------4----4-4-4--2----2-2-2---2--2--2-2-2--2-2--2-2-2-2---------------|
A |------5----5-5-5--3----3-3-3---3--3--3-3-3--3-3--3-3-3-3--0-3-5-0------|
D |-----------------------------------------------------------------------|

E |-----------0-----------0---0---------0------------------0--------------|
B |-----------0---0-------0---0---------0------------------0--------------|
G |------0----0-0-0--0----0-0-0---0--0--0-----------2------2--------------|
D |------4----4-4-4--2----2-2-2---2--2--2-2/4-4--4--2--2-2-2--------------|
A |------5----5-5-5--3----3-3-3---3--3--3-3/5-5--5--0--0-0----0-3-5-0-----|
D |-----------------------------------------------------------------------|

E |-----------------------0---0---------0---0--0----------0---------------|
B |------------0----------0---0---------3---3--3-3--0-----0---------------|
G |----------0---0----0---0-0-0---0--0--0-0-0--0-0--0-0-0-0---------------|
D |--------4-------4--2---2-2-2---2--2--2-2-2--2-2--2-2-2-2---------------|
A |------5------------3---3-3-3---3--3--3-3-3--3-3--3-3-3-3--0-3-5-0------|
D |-----------------------------------------------------------------------|

E |-----------------------0---0---------0------------------0--------------|
B |------------0----------0---0---------0------------------0--------------|
G |----------0---0----0---0-0-0---0--0--0-----------2------2--------------|
D |--------4-------4--2---2-2-2---2--2--2-2/4-4--4--2--2-2-2--------------|
A |------5------------3---3-3-3---3--3--3-3/5-5--5--0--0-0----0-3-5-0-----|
D |-----------------------------------------------------------------------|

E |-----------0-----------0---0---------0---0--0----------0---------------|
B |-----------0---0-------0---0---------3---3--3-3--0-----0---------------|
G |------0----0-0-0--0----0-0-0---0--0--0-0-0--0-0--0-0-0-0---------------|
D |------4----4-4-4--2----2-2-2---2--2--2-2-2--2-2--2-2-2-2---------------|
A |------5----5-5-5--3----3-3-3---3--3--3-3-3--3-3--3-3-3-3--0-3-5-0------|
D |-----------------------------------------------------------------------|

E |-----------------------0---0---------0------------------0------0-0-0---|
B |------------0----------0---0---------0------------------0------0-0-0---|
G |----------0---0----0---0-0-0---0--0--0-----------2------2------2-2-2---|
D |--------4-------4--2---2-2-2---2--2--2-2/4-4--4--2--2-2-2--2-2-2-2-2---|
A |------5------------3---3-3-3---3--3--3-3/5-5--5--0--0-0----0-0---------|
D |-----------------------------------------------------------------------|



   repeat PRE-CHORUS



FINAL CHORUS (w/distortion)
E |-------------------------------------------------------------------|
B |-------------------------------------------------------------------|
G |o-----------------------------------------------------------------o|
D |o-----------------------------------------------------------------o|
A |------2/4-4-0-0---0-0-2/4-4---2/4-4-0-0---0-0-2/4-4-4-4----7-7-----|
D |------2/4-4-0-0---0-0-2/4-4---2/4-4-0-0---0-0-2/4-4-4-4-0--7-7-----|
    (play x 3)

E |----------------------------------------------------------------------|
B |----------------------------------------------------------------------|
G |----------------------------------------------------------------------|
D |------------------------------------------------------9-9-9\7-7-7-----|
A |------2/4-4-0-0---0-0-2/4-4---2/4-4-0-0---0-0-2/4-4---9-9-9\7-7-7-----|
D |------2/4-4-0-0---0-0-2/4-4---2/4-4-0-0---0-0-2/4-4-0-9-9-9\7-7-7-----|

Comments