Incubus - Nice To Know You Chords & Tabs

 

Nice To Know You Chords & Tabs

Incubus Chords & Tabs

Version: 5 Type: Tab 0 ratings
1 star 2 stars 3 stars 4 stars 5 stars
comments

Nice To Know You Tab

   
	
	#----------------------------------PLEASE NOTE--------------------------------#
	#This file is the author's own work and represents their interpretation of the#
	#song. You may only use this file for private study, scholarship, or research.#
	#-----------------------------------------------------------------------------#

Artist:     Incubus
Title:      Nice to know You
Album:      Morning View
Tab Author: Cristhian Barneond 

Contact Info...
E-Mail: cbarneond@yahoo.com.mx

Tuning
EADGBe Normal

/ slide


Intro 
------

  A1
e|---------7---------7--|		   
B|-------10--------10---|		
G|-------10--------10---|		
D|------9---------9-----| X 4 then	
A|----------------------|		
E|----------------------|

  A2 OR CHORUS
e|------------------------------|
B|------------------------------|
G|------------------------------|
D|---4--4--4--/--7--/--4--4--4--| X 4 
A|---4--4--4--/--7--/--4--4--4--|
E|---2--2--2--/--5--/--2--2--2--|


Verse
------
[ Tab from: http://www.guitartabs.cc/tabs/i/incubus/nice_to_know_you_tab_ver_5.html ]
e|-------------------------------| Note : in this part Mike Einziger(guitar of incubus)
B|-------------------------------|        plays like this he put's his finger on the 3 fret   
G|-------------------------------|        an slides the   in the 6 string all the way up until 
D|-------------------------------|        he get's to 7 or 9 fret then he slide he finger on the
A|-------------------------------|        3 fret to the 7 or 9 fret and that's how he get the 
E|-3-----/--------------------3--|        effect of shiiiiiiiuuuuuuuuuukk  

	Then do part | A1 | but only  2 times and repeat



Bridge
									A3
                                                                |                   |     
e|----0--0--0--0--0--0---0--0--0--0--0--0---3--3--3--3--3--3--3-|-2--2--2--2--2--2--|
B|----0--0--2--2--2--2---0--0--0--0--0--0---3--3--3--3--3--3--3---2--2--2--2--2--2--|
G|----2--2--2--2--2--2---1--1--1--1--1--1---0--0--0--0--0--0--0---3--3--3--3--3--3--| X 2 
D|----2--2--2--2--2--2---2--2--2--2--2--2---0--0--0--0--0--0--0---4--4--4--4--4--4--|
A|----0--0--0--0--0--0---2--2--2--2--2--2---2--2--2--2--2--2--2---4--4--4--4--4--4--|
E|----0--0--0--0--0--0---0--0--0--0--0--0---3--3--3--3--3--3--3-|-2--2--2--2--2--2--|

  the last time when you are in part A3 repeat only that part another
  time but more harder and quick and then do part A2


Solo 
-----

do part A1 before this about 2  times then 

e|-------------------------|          
B|-------0---------0-------|
G|------0---0-----0---0----|
D|-----2---2-----4---0-----| X 8 then
A|----3---3-----5---5------|
E|-------------------------|

then do Bridge and Chorus 


Questions you now the mail , thank Incubus for great song 

          CRISTHIAN BARNEOND

   _ _ _ _ _ _ _ _ _ _ _ _ _ _ _ _ _ 
  |       _____  ______      ____    |    
  |      /       /    /  /  /        |
  |     /       / \__/  /  /___      |  
  |    /       / \     /      /      |
  |   /____   /   \   /  ____/       | 
  |_ _ _ _ _ _ _ _ _ _ _ _ _ _ _ _ _ |

Comments