Incubus - Nice To Know You Chords & Tabs

 

Nice To Know You Chords & Tabs

Incubus Chords & Tabs

Version: 1 Type: Tab 2 ratings
1 star 2 stars 3 stars 4 stars 5 stars
comments

Nice To Know You Tab

#----------------------------------PLEASE NOTE--------------------------------#
#This file is the author's own work and represents their interpretation of the#
#song. You may only use this file for private study, scholarship, or research.#
#-----------------------------------------------------------------------------#
#-- File created with Instab - http://www.pconline.com/~smcarey/instab.html --#
#-----------------------------------------------------------------------------#

Author/Artist: Incubus
Title: Nice To Know You
Album: Morning View
Transcribed by: huskers420
Email: fto2345821@aol.com

Standard Tuning


-|---------------------------------|------------------------------------------
-|---------------------------------|------------------------------------------
-|------12---12--------------------|------------------------------------------
-|-14---14---14--------------------|-2-4-4----------2-4-4--2-4-4--------------
-|-16---16---16--------------------|-------5-5--5-5--------------5-5-5\-------
-|---------------------------------|------------------------------------------
 Intro, delay and flanger, repeat    bass line                                

-|----------------------------------------------------------------------------
-|----------------------------------------------------------------------------
-|----------------------------------------------------------------------------
-|-2-4-4-7-7---7-2-4-4---2-4-4-7-7---7-2-2-4-4-4-4-4-7-7----------------------
-|-2-4-4-5-5---5-2-4-4---2-4-4-5-5---5-2-2-4-4-4-4-4-7-7----------------------
-|-0-2-2-5-5---5-0-2-2---0-2-2-5-5---5-0-0-2-2-2-2-2-5-5----------------------
 heavy dist. chorus                                                           

-|----------------------------------------------------------------------------
-|-----------------12---------------------------------------------------------
-|-11--------------14---14----------------------------------------------------
-|-x---------------16---16----------------------------------------------------
-|-9--------------------------------------------------------------------------
-|----------x\\------------x\\\\\\x\\\\\\\------------------------------------
 verse with vol. swells and flange                                            
[ Tab from: http://www.guitartabs.cc/tabs/i/incubus/nice_to_know_you_tab.html ]
-|-0-0-0-0-0-0-0-0-0-0-0-0-0-0-0-0-0-0-0-0-0-0-0-0-0-0-0-0-0-0-0-0-0-0-0-0-0--
-|-0-0-0-0-0-0-0-0-0-0-0-0-0-0-0-0-0-0-0-0-0-0-0-0-0-0-0-0-0-0-0-0-0-0-0-0-0--
-|-2-2-2-2-2-2-2-2-2-2-1-1-1-1-1-1-1-1-1-1-1-1-1-0-4-4-4-4-4-4-4-4-4-4-3-3-3--
-|-2-2-2-2-2-2-2-2-2-2-2-2-2-2-2-2-2-2-2-2-2-2-2-2-5-5-5-5-5-5-5-5-5-5-4-4-4--
-|-0-0-0-0-0-0-0-0-0-0-0-0-0-0-0-0-0-0-0-0-0-0-0-0-5-5-5-5-5-5-5-5-5-5-4-4-4--
-|-------------------------------------------------3-3-3-3-3-3-3-3-3-3-2-2-2--
 pre-chorus with clean tone, strum 1st chord                                  

-|-0-0-0-0--------------------------------------------------------------------
-|-0-0-0-0--------------------------------------------------------------------
-|-3-3-3-3-2-2-4-4-4----------------------------------------------------------
-|-4-4-4-4-0-0-2-2-2----------------------------------------------------------
-|-4-4-4-4-0-0-2-2-2----------------------------------------------------------
-|-2-2-2-2-----0-0-0----------------------------------------------------------
                     then repeat                                              

-|----------------------------------------------------------------------------
-|-----------0-0-0-0-0-0-0-0-0-0-0-0-0-0-----------0-0-0-0-0-0-0-0-0----------
-|-----------0-0-0-0-0-0-0-0-0-0-0-0-0-0-----------0-0-0-0-0-0-0-0-0-----0----
-|-----0---4-4-4-2-2-2-2-2-2-2-2-2-2-2-2-----0---4-4-4-2-2-2-2-2-2-2/4-4-0----
-|-0-3---0-5-5-5-3-3-3-3-3-3-3-3-3-3-3-3-0-3---0-5-5-5-3-3-3-3-3-3-3/5-5-0----
-|----------------------------------------------------------------------------
 interlude/bridge part,clean tone                                             

-|---0-0-0--------------------------------------------------------------------
-|---0-0-0--------------0-----0-0-0-0-0-0-3-3-3-3-0-0-0-0-0---------------0---
-|-2-2-2-2------------0---0---0-0-0-0-0-0-0-0-0-0-0-0-0-0-0-------------0-----
-|-2-2-2-2-----0----4-------4-2-2-2-2-2-2-2-2-2-2-2-2-2-2-2-----0-----4-------
-|-0-0-0-0-0-3---0-5----------3-3-3-3-3-3-3-3-3-3-3-3-3-3-3-0-3---0-5---------
-|----------------------------------------------------------------------------
                                                                              

-|---------------------------0-0-0--------------------------------------------
-|-----0-0-0-0-0-0-0---------0-0-0--------------------------------------------
-|-0---0-0-0-0-0-0-0-----0-2-2-2-2--------------------------------------------
-|---4-2-2-2-2-2-2-2/4-4-0-2-2-2-2-----0--------------------------------------
-|-----3-3-3-3-3-3-3/5-5-0-0-0-0-0-0-3---0------------------------------------
-|----------------------------------------------------------------------------
                                         repeat once more then go to chorus   

-|-------------------------------------------------------0-0-0----------------
-|-------------------------------------------------------0-0-0----------------
-|-------------------------------------------------------2-2-2----------------
-|-2-4-4-7-7---7-2-2-4-4---2-4-4-7-7---7-2-2-4-4-2-4-4-4-2-2-2----------------
-|-2-4-4-5-5---5-2-2-4-4---2-4-4-5-5---5-2-2-4-4-2-2-2-2-0-0-0----------------
-|-0-2-2-5-5---5-0-0-2-2---0-2-2-5-5---5-0-0-2-2-0-2-2-2----------------------
 outro, heavy dist.                                                           

Comments