Incubus - New Skin Chords & Tabs

 

New Skin Chords & Tabs

Incubus Chords & Tabs

Version: 7 Type: Tab 0 ratings
1 star 2 stars 3 stars 4 stars 5 stars
comments

New Skin Tab

New Skin
Submitted by Dimitri Pavlakos
Standard Tunning

E-----------------------------------------------
B-----------------------------------------------
G--2--2------2--2-----2--2-----2-2--------------
D--2--2------2--2-----2--2-----2-2--------------
A--4--4------4--4-----4--4-----4-4--------------
E--4--4------4--4-----4--4----------------------

Figure out timing and number of chords
E------------------------------------------------
B--------------------------------------------2-2-
G---2-2-x---2-2-x-----------2-2----2---2-2---3-3-
D---2-2-x---2-2-x---3-------2-2----2---2-2---0---
A---4-4-x---4-4-x---3-------4-4----4---4-4-------
E-0-------0-------0-1-----0------0---0-----0-----
[ Tab from: http://www.guitartabs.cc/tabs/i/incubus/new_skin_tab_ver_7.html ]
E-----------------------------------15--      Repeat
B--------------------------14-13-12-----
G--11h12-11-11-11-11-12-11--------
D------------------
A-----------------
E-----------------

------13----14----15\----19b--------------------
---12-----13----14\----18b----------------------
-11-----12----13\----17b------2---3-3-3-3-------
------------------------------2-2-3-3-3-3-------
------------------------------4-2-5-5-5-5-------
--------------------------------4---------------

------------
------------
-----9-9------10-10-----9-9-------12--12--
--5--9-9--12--10-10--5--9-9---12--12--12--
--5--7-7--10--8--8---5--7-7---10--10--10--
--7--7-7---8--8--8---7--7-7---8---10--10--

The rest of the song is already written except a certain 
part towards the end of the song.  I am not sure exactly how 
it goes so I will leave it to you.  If you know it let me know.  

Good luck.
Thanks


Comments