Incubus - New Skin Chords & Tabs

 

New Skin Chords & Tabs

Incubus Chords & Tabs

Version: 6 Type: Tab 0 ratings
1 star 2 stars 3 stars 4 stars 5 stars
comments

New Skin Tab

   
 
 ------------------------------------------------------------------------
	
	Song: New Skin
	Band: Incubus
	Album: S.C.I.E.N.C.E.
	Transcribed by: Wes Adams (Snwb0rdguy@aol.com)

 ------------------------------------------------------------------------


 Intro:(w/distortion)

  P.M.>>>>>>>>>>>>>>>>>>>>
E|--------------------------------------------|
B|--------------------------------------------|
G|----4-4--------4-4---4-4--------------4-4---|
D|----4-4--------4-4---4-4--------------4-4---|
A|----2-2--------2-2---2-2--------------2-2---|
E|--------------------------------------------|

 Prechorus:(w/distortion)

E|--------------------------------------------|
B|--------------------------------------------|
G|----4-4-4-4-------------4-4-4-4-x---7-7-7---|
D|----4-4-4-4-x--3-3-3----4-4-4-4-x---7-7-7---|
A|----2-2-2-2-x--3-3-3----2-2-2-2-x---5-5-5---|
E|--0---------x--1-1-1--0---------------------|

 Verse:(w/distortion)

E|---------------------------------------|
B|--------12----------13--------13-15-13-|
G|--11-11----11-11-12----12--12----------|
D|---------------------------------------|
A|---------------------------------------|
E|---------------------------------------|
[ Tab from: http://www.guitartabs.cc/tabs/i/incubus/new_skin_tab_ver_6.html ]
 2nd Pre-Chorus:(w/distortion)

E|-----------------------------------------------|
B|-----------------------------------------------|
G|--4-4-4-4------5--5-5--x-4-4-4-4------5--5-5---|
D|--4-4-4-4--4---5--5-5--x-4-4-4-4--4---5--5-5---|
A|--2-2-2-2--4---3--3-3--x-2-2-2-2--4---3--3-3---|
E|-----------2----------------------2------------|

 Chorus:(w/distortion)

E|----------------------------------------|
B|----------------------------------------|
G|----------9---9-9---5-5-5--10-10-10-----|
D|--7--7-7--9---9-9---5-5-5--10-10-10-----|
A|--7--7-7--7---7-7---3-3-3--8---8--8-----|
E|--5--5-5--------------------------------|

 Prechorus:(w/distortion)

E|--------------------------------------------|
B|--------------------------------------------|
G|----4-4-4-4-------------4-4-4-4-x---7-7-7---|
D|----4-4-4-4-x--3-3-3----4-4-4-4-x---7-7-7---|
A|----2-2-2-2-x--3-3-3----2-2-2-2-x---5-5-5---|
E|--0---------x--1-1-1--0---------------------|

 2nd Verse:(w/distortion)

E|---------------------------------------|
B|--------12----------13-------13-15-13--|
G|--11-11----11-11-12----12-12-----------|
D|---------------------------------------|
A|---------------------------------------|
E|---------------------------------------|


 
	For more tabs, go to http://www.angelfire.com/bc/paulsworld

Comments