Incubus - New Skin Chords & Tabs

 

New Skin Chords & Tabs

Incubus Chords & Tabs

Version: 4 Type: Tab 0 ratings
1 star 2 stars 3 stars 4 stars 5 stars
comments

New Skin Tab

Song - New skin
Band - Incubus
Album - S.C.I.E.N.C.E.
By - Cor
Tuning – EADGBE   S= Slide


New skin

Intro:(w/distortion)
P.M.>>>>>>>>>>>>>>>>>>>>
E:--------------------------------------------
B:--------------------------------------------
G:----4-4--------4-4---4-4--------------4-4---
D:----4-4--------4-4---4-4--------------4-4---
A:----2-2--------2-2---2-2--------------2-2---
E:----2-2--------2-2---2-2--------------2-2---

Prechorus:(w/distortion)

E:--------------------------------------------
B:--------------------------------------------
G:----4-4-4-4-------------4-4-4-4-x---7-7-7---
D:----4-4-4-4-x--3-3-3----4-4-4-4-x---7-7-7---
A:----2-2-2-2-x--3-3-3----2-2-2-2-x---5-5-5---
E:-----------x--1-1-1-----------------5-5-5---

Verse:(w/distortion)

E:---------------------------------------
B:--------12-----------13--------13-14---
G:--11-11----11-11--12----12-12----------
D:---------------------------------------
A:---------------------------------------
E:---------------------------------------

2nd Pre-Chorus:(w/distortion)
[ Tab from: http://www.guitartabs.cc/tabs/i/incubus/new_skin_tab_ver_4.html ]
E:-----------------------------------------------
B:-----------------------------------------------
G:--4-4-4-4------5--5-5--x-4-4-4-4------5--5-5---
D:--4-4-4-4--4---5--5-5--x-4-4-4-4--4---5--5-5---
A:--2-2-2-2--4---3--3-3--x-2-2-2-2--4---3--3-3---
E:-----------2---3--3-3-------------2---3--3-3---

Chorus:(w/distortion)

E:---------------------------------------------
B:---------------------------------------------
G:----------9--9-----5-5-----10-10--------------------
D:--7-7--S--9--9--S--5-5--S--10-10---------------------
A:--7-7--S--7--7--S--3-3--S--8--8--------------------
E:--5-5--S--7--7--S--3-3--S--8--8--------------------

Prechorus:(w/distortion)

E:--------------------------------------------
B:--------------------------------------------
G:----4-4-4-4-------------4-4-4-4-x---7-7-7---
D:----4-4-4-4-x--3-3-3----4-4-4-4-x---7-7-7---
A:----2-2-2-2-x--3-3-3----2-2-2-2-x---5-5-5---
E:------------x--1-1-1----------------5-5-5---

2nd Verse:(w/distortion)
E:---------------------------------------
B:--------12-----------13--------13-14---
G:--11-11----11-11--12----12-12----------
D:---------------------------------------
A:---------------------------------------
E:---------------------------------------


Ending:
E:---------------------------------------
B:---------------------------------------
G:--4-4--x-----------5-5--5-5--------------
D:--4-4--x--3-3--x---5-5--5-5--------------
A:--2-2--x--3-3--x---3-3--3-5--------------
E:----------1-1--x---3-3--3-3--------------

This is one of Incubus’s greatest songs.
The beginning might be a little hard at first to get the rhythm down ..but its mad cool
Cor.. (smitty2k7@yahoo.com)
Comments