Incubus - New Skin Chords & Tabs

 

New Skin Chords & Tabs

Incubus Chords & Tabs

Version: 2 Type: Tab 0 ratings
1 star 2 stars 3 stars 4 stars 5 stars
comments

New Skin Tab

The last person who tabbed this got the chorous wrong so I thought I 
would edit for him

Feedback to 

matt_cclarkson@hotmail.com

Intro:(w/distortion)
P.M.>>>>>>>>>>>>>>>>>>>>
E:--------------------------------------------
B:--------------------------------------------
G:----4-4--------4-4---4-4--------------4-4---
D:----4-4--------4-4---4-4--------------4-4---
A:----2-2--------2-2---2-2--------------2-2---
E:--------------------------------------------

Prechorus:(w/distortion)

E:--------------------------------------------
B:--------------------------------------------
G:----4-4-4-4-------------4-4-4-4-x---7-7-7---
D:----4-4-4-4-x--3-3-3----4-4-4-4-x---7-7-7---
A:----2-2-2-2-x--3-3-3----2-2-2-2-x---5-5-5---
E:--0---------x--1-1-1--0---------------------

Verse:(w/distortion)

E:---------------------------------------
B:--------------------12--------14-------
G:--11-11-11-11-11-11----12--13----14----
D:---------------------------------------
A:---------------------------------------
E:---------------------------------------

2nd Pre-Chorus:(w/distortion)
[ Tab from: http://www.guitartabs.cc/tabs/i/incubus/new_skin_tab_ver_2.html ]
E:-----------------------------------------------
B:-----------------------------------------------
G:--4-4-4-4------5--5-5--x-4-4-4-4------5--5-5---
D:--4-4-4-4--4---5--5-5--x-4-4-4-4--4---5--5-5---
A:--2-2-2-2--4---3--3-3--x-2-2-2-2--4---3--3-3---
E:-----------2----------------------2------------

Chorus:(w/distortion)

E:------------------------------------------
B:------------------------------------------
G:----------9---9-9-9-9----------10--10-10-10
D:--7--7-7--9---9-9-9-9--9--9-9--10--10-10-10
A:--7--7-7--7---7-7-7-7--9--9-9--8---8--8--8-
E:--5--5-5---------------7--7-7--8---8--8--8-

Prechorus:(w/distortion)

E:--------------------------------------------
B:--------------------------------------------
G:----4-4-4-4-------------4-4-4-4-x---7-7-7---
D:----4-4-4-4-x--3-3-3----4-4-4-4-x---7-7-7---
A:----2-2-2-2-x--3-3-3----2-2-2-2-x---5-5-5---
E:--0---------x--1-1-1--0---------------------

2nd Verse:(w/distortion)

E:---------------------------------------
B:--------------------12--------14-------
G:--11-11-11-11-11-11----12--13----14----
D:---------------------------------------
A:---------------------------------------
E:---------------------------------------

Enjoy, This will always be my favourite Incubus song, The vocals top 
are some of the best on any song i've heard.
Comments