Incubus - New Skin Chords & Tabs

 

New Skin Chords & Tabs

Incubus Chords & Tabs

Version: 1 Type: Tab 0 ratings
1 star 2 stars 3 stars 4 stars 5 stars
comments

New Skin Tab

   
Title: New Skin
Artist: Incubus
Album: S.C.I.E.N.C.E
tabbed by Liam Wright (liam504@hotmail.com) hope this helps you  i'm almost positive it's corect
if you get the timeing right.

Intro - you might have to listen to the song to get the timeing right at the start.
Intro( riff 1)
e  -----------------------------------------------------------------------------------------------------------------------
B  -----------------------------------------------------------------------------------------------------------------------
G  -----------------------------------------------------------------------------------------------------------------------
D -9-----9---------------------------------9-----9--------------------------------------------------------------------
A  9-----9---------------------------------9-----9--------------------------------------------------------------------
E  7-----7---------------------------------7-----7--------------------------------------------------------------------
Intro(riff 2)
e  ---------------------------------------------------------------------------------------------------------------------------
B  ----------------------------------------------------------------------------------------------------------------------------
G  ----------------------------------------------------------------------------------------------------------------------------
D  7-----/ ---9-----9-----9-----9------------3------------7------/------9-----9-----9-----9-----------12--------12------
A  7---- /----9-----9-----9-----9------------3------------7------/------9-----9-----9-----9-----------12--------12------
E  5---- /----7-----7-----7-----7------------1------------5------/------7-----7-----7-----7-----------10--------10-------
repeat  X 4


verse (riff 1) although it's all turntables, you can get pretty close if you play this riff pretty fast
e  -----------------------------------------------------------------------------------------------------------------------
B  ----------------------------10--------------------------------12------------13----------13----14-------
G  11-----11------------11------------11-----11----------11-------------11------------12----------------------
D  -----------------------------------------------------------------------------------------------------------------------
A  -----------------------------------------------------------------------------------------------------------------------
E  -----------------------------------------------------------------------------------------------------------------------
repeat X 4 Then play......
verse (riff 2)
e  -----------------------------------------------------------------------------------------------------------------------
B  ----------------------------10-----------------------------------------------------------------------------------------
G  11-----11------------11-----------11----------------------------------------------------------------------------------
D  -----------------------------------------10----------10-----10----------10-----10-----10-------------------
A  -----------------------------------------10----------10-----10----------10-----10-----10-------------------
E  ------------------------------------------8-----------8------8-----------8------8------8-------------------

Then repeat riff 1 X 3 and then on the forth time play.......
[ Tab from: http://www.guitartabs.cc/tabs/i/incubus/new_skin_tab.html ]
verse (riff 3)
e  ----------------------------------------------14---------------13-------------------12--------------------------
B  ----------------------------10---------------------13---------------12--------------11--------------------------
G  11-----11------------11------------11--------------------12---------------11--------10--------------------------
D  -----------------------------------------------------------------------------------------------------------------------
A  -----------------------------------------------------------------------------------------------------------------------
E  -----------------------------------------------------------------------------------------------------------------------

pre corus
e  -----------------------------------------------------------------------------------------------------------------------
B  -----------------------------------------------------------------------------------------------------------------------
G  -----------------------------------------------------------------------------------------------------------------------
D--9------------9-----9-----9------------4------------10------------10-----10----------------------------------------
A  9------------9-----9-----9------------4------------10------------10-----10----------------------------------------
E  7------------7-----7-----7------------2-------------8-------------8------8----------------------------------------
repeat X 4

corus
e  -----------------------------------------------------------------------------------------------------------------------
B  -----------------------------------------------------------------------------------------------------------------------
G  7------------7-----7-----7-----4------------4-----4-----4------4------4-----4-----5--------------------------
D  7------------7-----7-----7-----2------------2-----2-----2------2------2-----2-----5--------------------------
A  5------------5-----5-----5-----2------------2-----2-----2------2------2-----2-----3--------------------------
E  5------------5-----5-----5-----0------------0-----0-----0------0------0-----0-----3--------------------------

e  -----------------------------------------------------------------------------------------------------------------------
B  -----------------------------------------------------------------------------------------------------------------------
G  5-----5-----5----10----------10---10---10---10----10---10---7---------7-----7-----7------------
D  5-----5-----5----10----------10---10---10---10----10---10---7---------7-----7-----7------------
A  3-----3-----3-----8-----------8----8----8----8-----8----8---5---------5-----5-----5------------
E  3-----3-----3-----8-----------8----8----8----8-----8----8---5---------5-----5-----5------------

e  -------------------------------------------------------------------------------------------------------------------------
B  -------------------------------------------------------------------------------------------------------------------------
G 4------------4-----4-----4-----4-----4-----4-----5------------5-----5-----5-----12------------12-----12-----
D 2------------2-----2-----2-----2-----2-----2-----5------------5-----5-----5-----12------------12-----12-----
A 2------------2-----2-----2-----2-----2-----2-----3------------3-----3-----3-----10------------10-----10-----
E 0------------0-----0-----0-----0-----0-----0-----3------------3-----3-----3-----10------------10-----10-----

e  -----------------------------------------------------------------------------------------------------------------------
B  -----------------------------------------------------------------------------------------------------------------------
G  12-----12-----12-----12------------------------------------------------------------------------------------------------
D  12-----12-----12-----12------------------------------------------------------------------------------------------------
A  10-----10-----10-----10------------------------------------------------------------------------------------------------
E  10-----10-----10-----10------------------------------------------------------------------------------------------------
repeat X 2  thats more or less the whole song exept for a little bit in the bridge.
after the corus play intro riff 2 twice.
Then go back into the verse.
Then the corus but repeat it 4 times.
Then repeat intro riff 1 once.
Then comes the bit i haven't figured
out yet but after that go back into
pre corus.
Then into the corus for another 4 times.
and thats the end.


Comments