Incubus - Neither Of Us Can See Chords & Tabs

 

Neither Of Us Can See Chords & Tabs

Incubus Chords & Tabs

Version: 1 Type: Tab 0 ratings
1 star 2 stars 3 stars 4 stars 5 stars
comments

Neither Of Us Can See Tab

Artist: Incubus
Track: Neither of us can see
Album: Stealth (soundtrack)
Tabber: Andrew Biles

Simple layout for this track, so I'll leave it for you to work out the verse, chorus,
stuff.  Features Chrissie Hynde of The Pretenders on vocals. In the latter verses Mike
only seems to play the last two notes on the guitar and the piano plays the rest of the
riff, but I've left it as it is as I'm sure a lot of people don't play piano/keyboard
and still want to learn it like this.

Standard tuning.

Intro/verse
|-----------------------------0---|
|-------------------------------4-|
|-----6-------6-------6-----------|
|---5-------5---5---5-------5-----|
|-0---------------0-------3-------|
|-------5-3-------------5---------|

Chorus
|-----------------------------------|
|-6------------------6------------5-|
|-7-------7----9-----7-------3----5-|
|-7-------8----10----7-------5----5-|
|-5-------8----10----5-------5----3-|
|---------6----8-------------3------|

[ Tab from: http://www.guitartabs.cc/tabs/i/incubus/neither_of_us_can_see_tab.html ]
Solo 1
|-3-5--5---8-10-8-10-9-8h10-8/6-5------16^-|
|------------------------------------------|
|------------------------------------------|
|------------------------------------------|
|------------------------------------------|
|------------------------------------------|
                                   ^There's a load of notes in there that are too fast 
my to figure out


Solo 2
|---------------------------------------------------10---8--------------------------------|
|-b8r-----8----8---10-8-10-8-10-11--10-8----8----------8----8-8/11-10-8-10--------8-10----|
|------10---10---------------------------10---8--7-------------------------11--11------11-|
|-----------------------------------------------------------------------------------------|
|-----------------------------------------------------------------------------------------|
|-----------------------------------------------------------------------------------------|


|-------------------------------------------------11----------13-13tr-----15tr---17tr---13-------|
|-11----11----11----13----15----15----15----15----------15---------------------------------15----|
|----12----12----12----12----12----12----12----12----12----12---------------------------------14-|
|------------------------------------------------------------------------------------------------|
|------------------------------------------------------------------------------------------------|
|------------------------------------------------------------------------------------------------|

_______________
Key:

^  = bend
b  = I've used it before the note on this tab and means pre-bend
r  = release of bend
tr = tremolo

any questions? andrewbiles@hotmail.com
Comments