Incubus - Nebula Chords & Tabs

 

Nebula Chords & Tabs

Incubus Chords & Tabs

Version: 1 Type: Tab 0 ratings
1 star 2 stars 3 stars 4 stars 5 stars
comments

Nebula Tab

   
#----------------------------------PLEASE NOTE---------------------------------#
#This file is the author's own work and represents their interpretation of the #
#song. You may only use this file for private study, scholarship, or research. #
#------------------------------------------------------------------------------##

Artist: Incubus
Title: Nebula
Album: S.C.I.E.N.C.E
Released: 1997
Guitarist: Mike Einziger
Tab Author: Dirk Lithium
Contact Info...
E-Mail: stridersquall@hotmail.com | ICQ#: 33312210

Tuning: Dropped D [D A D G B E]
(Instructions: Drop top string down 2 steps, E -> D)
[pm = palm mute]
This song has some weird phaser/phlanger effect to it
for most of the song... but I don't have one and it
sounds pretty damn good without it :)

Verses:
Full Distortion
E|-------------------------------------------------------------------
B|-11---11---11---11---11---11---11---11---11---11---11---11---------
G|-------------------------------------------------------------------
D|-------------------------------------------------------------------
A|-------------------------------------------------------------------
D|-------------------------------------------------------------------
Now THAT'S a toughy! :)

Chorus Pt. 1
Even MORE Distortion :)
"DISCONNECT AND LET ME DRIFT..."
E|-------------------------------------------------------------------
B|-------------------------------------------------------------------
G|-------------------------------------------------------------------
D|-7-7-8--77-7-8-7777-7-8-77-7-8-7777-7-8-77-7-8-7777-7-8-77-7-8----8
A|-7-7-6--77-7-6-7777-7-6-77-7-6-7777-7-6-77-7-6-7777-7-6-77-7-6----6
D|-7-7----77-7---7777-7---77-7---7777-7---77-7---7777-7---77-7-------
[ Tab from: http://www.guitartabs.cc/tabs/i/incubus/nebula_tab.html ]
Chorus Pt. 2
No distortion, with phaser/planger effect (wahwah effects work too!)
"Wander off into your nebula..."
E|-------------------------------------------------------------------
B|-------------------------------------------------------------------
G|-------------------------------..pm.---.pm..-----------------------
D|--42020-0-42020-0-42020-0---5--5-5-5-7-7-7-7-----------------------
A|-2-----4-2-----4-2-----4----5--5-5-5-7-7-7-7-----------------------
D|----------------------------5--5-5-5-7-7-7-7-----------------------
Repeat twice, then play...
Chorus Pt. 3
Full Distortion
E|-------------------------------------------------------------------
B|-------------------------------------------------------------------
G|-------------------------------------------------------------------
D|-0-00-0-0-00----0-00-0-0-00----00-0-0-0-00----0-00-0-0-00----------
A|-0-00-0-0-00----0-00-0-0-00----00-0-0-0-00----0-00-0-0-00----------
D|-0-00-0-0-00----0-00-0-0-00----00-0-0-0-00----0-00-0-0-00----------
   

(Verse 2)
(Chorus 2)
These 2 are played exactly the same as the beginning.

The bridge is pretty much Chorus Pt. 2 without the palm muting parts,
so I don't really feel like tabbing it all over again...
Yeah yeah, I know, I'm a lazy ass... well here's an idea, LEARN HOW
TO PLAY IT YOURSELF! :)

End:
"Wander off into your nebula..."
When you play Chorus Pt. 2 after the bridge, play it once normally
then once like this...
E|-------------------------------------------------------------------
B|-------------------------------------------------------------------
G|-------------------------------..pm.---.pm..-----------------------
D|--42020-0-42020-0-42020-0---5--5-5-5-7-7-7-7--9}-------------------
A|-2-----4-2-----4-2-----4----5--5-5-5-7-7-7-7--9}-let this ring out-
D|----------------------------5--5-5-5-7-7-7-7--9}-------------------


Song Setup:
Verse 1
Chorus
Verse 2
Chorus 2
Bridge Pt. 1 (Same riff as Chorus Pt. 2)
Bridge Pt. 2 (This is Chorus Pt. 3, when you hear Brandon laughing)
End



Comments:
This is probably my favourite song from my favourite Incubus CD! :)
But now it's not my favourite Incubus song, Stellar is, but hey this
is still an awesome song! hehe... ANYWAYS. This song is pretty damn
repetitive, but it's still REALLY fun to play and it's really heavy
too. That's almost an oxymoron, a heavy song that's fun to play :)
ANYWAYS...
If you have any questions, comments, death threats, love letters, or
corrections, just contact me using one of the above methods.
Thank you, drive through.
Dirk (:09- 30 -01:)
Comments