Incubus - Mexico Chords & Tabs

 

Mexico Chords & Tabs

Incubus Chords & Tabs

Version: 7 Type: Tab 0 ratings
1 star 2 stars 3 stars 4 stars 5 stars
comments

Mexico Tab

#----------------------------------PLEASE NOTE---------------------------------#
#This file is the author's own work and represents their interpretation of the #
#song. You may only use this file for private study, scholarship, or research. #
#------------------------------------------------------------------------------##

Incubus
Mexico
Morning View
Transcribed by: Brendan O'Mara (brad1106@hotmail.com)
Standard Tuning




Intro & Verses

e|------0-----0------0-----0------------------------0-----0-------------|
B|------8-----8------0-----0------------------------x-----x-------------|
G|------------------------------------7------7------2-----2-------------|
D|----9-----9------5------5-----------0------0--------------------------|
A|--7-----7------3------3-----------8------8------3------3--------------|
E|-----------------------------0--6------6------1------1----------------|



Chorus
[ Tab from: http://www.guitartabs.cc/tabs/i/incubus/mexico_tab_ver_7.html ]
e|----------------------------------------0-0-0-0-----------------------------------------|
B|-------------------------------0--------0-0-0-0-----------------------------------------|
G|--------0--------------------0---0------0-0-0-0--------0----------------7-7-7-7--5-5-5--|
D|------4---4-----0-0-0-0----5-------5----2-2-2-2------4---4-----0-0-0-0--7-7-7-7--5-5-5--|
A|----2-------2---x-x-x-x--3--------------0-0-0-0----2-------2---x-x-x-x--5-5-5-5--3-3-3--|
E|--0-------------3-3-3-3-----------------0-0-0-0--0-------------3-3-3-3------------------|


Bridge - Play this, then go back to chorus

e|--------------------------------|----|----------------------------------------|
B|--------------------------------|----|----------------------------------------|
G|--------------2-2-2-2--0-0-0-0--|-3x-|----------------------------------------|
D|----0-0-0-0---1-1-1-1--4-4-4-4--|----|--0-0-0-0--5-5-5-5-5-5-5-5--3-3-3-3-----|
A|----x-x-x-x---2-2-2-2--2-2-2-2--|----|--x-x-x-x--4-4-4-4-4-4-4-4--3-3-3-3-----|
E|----3-3-3-3------------0-0-0-0--|----|--3-3-3-3--5-5-5-5-5-5-5-5--1-1-1-1-----|


Outro - The very last measure, he does this.


e|------0-----0------0-----0------------------------0-------0----------|
B|------8-----8------0-----0------------------------x-------0----------|
G|------------------------------------7------7------2-------2----------|
D|----9-----9------5------5-----------0------0--------------3----------|
A|--7-----7------3------3-----------8------8------3------3--3----------|
E|-----------------------------0--6------6------1------1----1----------|



Comments