Incubus - Mexico Chords & Tabs

 

Mexico Chords & Tabs

Incubus Chords & Tabs

Version: 6 Type: Tab 0 ratings
1 star 2 stars 3 stars 4 stars 5 stars
comments

Mexico Tab

#----------------------------------PLEASE NOTE---------------------------------#
#This file is the author's own work and represents their interpretation of the #
#song. You may only use this file for private study, scholarship, or research. #
#------------------------------------------------------------------------------##

BAND: INCUBUS
SONG: MEXICO
CD: MORNING VIEW



INTRO

E|-----------------------------------------------------------------------------------|
B|-----------------------------------------------------------------------------------|
G|------9-----9------5------5--------------------------------------------------------|
D|----9-----9------5------5-----------8------8------3------3-------------------------|
A|--7-----7------3------3-----------8------8------3------3---------------------------|
E|-----------------------------5--6------6------1------1-----------------------------|




VERSE
[ Tab from: http://www.guitartabs.cc/tabs/i/incubus/mexico_tab_ver_6.html ]
E|-----------------------------------------------------------------------------------|
B|-----------------------------------------------------------------------------------|
G|------9-----9------5------5--------------------------------------------------------|
D|----9-----9------5------5-----------8------8------3------3-------------------------|
A|--7-----7------3------3-----------8------8------3------3---------------------------|
E|-----------------------------5--6------6------1------1-----------------------------|





PRE-Chorus

E|-----------------------------------------------------------------------------------|
B|-----------------------------------------------------------------------------------|
G|-------------------------------7---7-7---------------------------------------------|
D|------2---2-2---5-5-5-5-5----7-----7-7----7-7-7-7-7--------------------------------|
A|----2-----2-2---5-5-5-5-5--5-------5-5----7-7-7-7-7--------------------------------|
E|--0-------0-0---3-3-3-3-3----------0-0----5-5-5-5-5--------------------------------|


CHORUS

E|-----------------------------------------------------------------------------------|
B|-----------------------------------------------------------------------------------|
G|--------------------------------7---7-7---5-5-5-5-5--------------------------------|
D|----2-2-2-2---5-5-5-5-5-------7-----7-7---5-5-5-5-5--------------------------------|
A|----2-2-2-2---5-5-5-5-5-----5-------5-5---3-3-3-3-3--------------------------------|
E|----0-0-0-0---3-3-3-3-3---0---------0-0---0-0-0-0-0--------------------------------|
Comments