Incubus - Mexico Chords & Tabs

 

Mexico Chords & Tabs

Incubus Chords & Tabs

Version: 5 Type: Tab 0 ratings
1 star 2 stars 3 stars 4 stars 5 stars
comments

Mexico Tab

Song: Mexico
Artist: incubus
Album: morning view
Tabbed by: Dan Ramirez
Date: 03/04/05
Standard tuning
I’m hoping this is the most accurate version, if not its really close, and  by far
The most complete, props to all others who tried.

INTRO & 1ST VERSE


E--------0-------0-------0-------0----------------------------------------0--   
B--------0-------0-------0-------0----------------------------------------0--                                                                   G----------------------------------------------7-------7--------2---------2--   
D-----9-------9-------5-------5--------------0-------0--------0-------------
A--7-------7--------3-------3--------------8-------8-------3---------3-----
E--------------------------------------0--6-------6-------1---------1--------

E--------0-------0-------0-------0----------------------------------------0--
B--------8-------8-------0-------0----------------------------------------0--
G-----------------------------------------------7--------7--------2-------2--    X6
D-----9-------9-------5-------5---------------0--------0--------0-------0--
A--7-------7-------3-------3---------------8-------8---------3-------3-----
E--------------------------------------0--6-------6---------1-------1--------


CHORUS:

E------------------------------------------------------------------------------------
B--------------------------------------------------0-0------------------------------
G-----------0-0---------------------------------0---0------------------------------
D---------4---4------0-0-0-0-0-0-0-0-0----5-----5--0--7---7-7-7-7-7-7-7----
A-------2-----2--0--4-4-4-4-4-4-4-4--0--3------3--0--7---7-7-7-7-7-7-7-----
E--1--0-------0--0--3-3-3-3-3-3-3-3-------------------5---5-5-5-5-5-5-5------

E--------------------------------------------------------------------------------------
B---------------------------------------------------0-0-------------------------------
G--------0-0-------------------------------------0---0-------------------------------
D------4---4------0---0-0-0-0-0-0-0-0------5-----5-0--7----7-7-7-7-7-7-7--0--
A----2-----2--0--4---4-4-4-4-4-4-4-4--0--3------3-0--7----7-7-7-7-7-7-7--0--
E--0-------0--0--3---3-3-3-3-3-3-3-3--0----------------5---5-5-5-5-5-5-5------
[ Tab from: http://www.guitartabs.cc/tabs/i/incubus/mexico_tab_ver_5.html ]
E---------------------------------------------------------------------------------------
B---------------------------------------------------------------------------------------
G--------0-0---------------------------------------------------------------------------
D------4---4------0---0-0-0-0-0-0-0-0-0--5--5-5-0---5-5-5-5-5-5--0-----------
A----2-----2--0--4---4-4-4-4-4-4-4-4--0--7--7-7-0--3-3-3-3-3-3--0------------
E--0-------0--0--3---3-3-3-3-3-3-3-3------7--7-7----3-3-3-3-3-3----------------






@@@@
E-------0------0--------0-------0----------------------------------------0--------
B-------0------0--------0-------0--0------------------------------------0--------
G--------------------------------------0-------7---------7-------2------2--------
D--------------------5-------5-----------------0--------0--------0---------------
A----9-----9-------3-------3---------------8--------8-------3------3------------
E--7------7-------------------------------6--------6--------1------1-------------

E--------0------0-------0--------0---------------------------------------0-------
B--------8------8-------0--------0---------------------------------------0-------
G-------------------------------------0----------7------7---------2------2-------
D--------------------5--------5--------0--------0------0---------0------0-------
A----9------9------3-------3-----------------8-------8-------3-------3---------
E--7-------7--------------------------------6-------6-------1--------1----------


BACK TO VERSE: x 4


BACK TO CHORUS:


(BRIDGE)

E-------------------------------------------------------------------------------------
B-------------------------------------------------------------------------------------
G--------------------------------------------------0--0-0-0-0-0-0-0--------0------
D--0---0-0-0--4---4-4-4-4-4-4---4---4-4--0--5--5-5-5-5-5-5-5------0---0----
A--5---5-5-0--2---2-2-2-2-2-2---2---2-2--0--3--3-3-3-3-3-3-3----5-------0--
E--3---3-3----0---0-0-0-0-0-0---0---0-0----------------------------3------------

E-------------------------------------------------------------------------------------------
B-------------------------------------------------------------------------------------------
G------------------------------------0---0-0-0-0-0-0---------0---0---0-0-0-0-0-0-0--
D--4---4-4-4-4-4-4---4---4-4-0--5---5-5-5-5-5-5-------0----4---4-4-4-4-4-4-4---
A--2---2-2-2-2-2-2---2---2-2-0--3---3-3-3-3-3-3-----5------2---2-2-2-2-2-2-2---
E--0---0-0-0-0-0-0---0--0-0---------------------------3--------------------------------

E-----------------------------------------------------------------------------------------------
B-----------------------------------------------------------------------------------------------
G-----------------------------------------------------------------------------------------------
D--0---0-0-0-0-0-0---7---7-7-7-7-7---7-7-7-7-7-7--0---5---5-5-5-5---5-5-5-5-5-5-0-
A--5---5-5-5-5-5-5---5---5-5-5-5-5---5-5-5-5-5-5--0---3---3-3-3-3---3-3-3-3-3-3-0-
E--3---3-3-3-3-3-3---5---5-5-5-5-5---5-5-5-5-5-5------3---3-3-3-3---3-3-3-3-3-3----

CHORUS:

END WITH @@@@












  
Comments