Incubus - Mexico Chords & Tabs

 

Mexico Chords & Tabs

Incubus Chords & Tabs

Version: 4 Type: Tab 2 ratings
1 star 2 stars 3 stars 4 stars 5 stars
comments

Mexico Tab

Incubus 
"Mexico" 
From Morning View

verse...
E|-------0------0--------0---------0----------------------------0--------0
B|-------0------0--------0---------0----------3--------3------------------
G|-----4------4-------4---------4-------------0--------0--------3--------3
D|---2------2------------------------------3--------3---------------------
A|-----------------3---------3----------1--------1-----------3--------3---
E|--------------------------------------------------------1--------1------

[ Tab from: http://www.guitartabs.cc/tabs/i/incubus/mexico_tab_ver_4.html ]
E|-------3------3--------0---------0----------------------------0--------0
B|-------0------0--------0---------0----------3--------3------------------
G|-----4------4-------4---------4-------------0--------0--------3--------3
D|---2------2------------------------------3--------3---------------------
A|-----------------3---------3----------1--------1-----------3--------3---
E|--------------------------------------------------------1--------1------
Chorus: 
E|-------------------------------------------------------------------------
B|-------------------------------------------------------------------------
G|---0----0-----0----0-----0----0----7----5--------------------------------
D|---4----0-----5----2-----4----0----7----5--------------------------------
A|---2----5-----3----0-----2----5----5----3--------------------------------
E|---0----3----------------0----3----5----3--------------------------------

 the bridge part... where he starts oohing and ahhing...
E|-----------------------
B|-----------------------
G|---0----2----0----5----
D|---0----1----4----5----
A|---5----2----2----3----
E|---3---------0----3----

these are the chords on the outro... he only plays them once...
E|--------------------
B|--------------------
G|---0----------------
D|--------3-----------
A|---7----3-----------
E|---5----1-----------
Comments