Incubus - Mexico Chords & Tabs

 

Mexico Chords & Tabs

Incubus Chords & Tabs

Version: 2 Type: Tab 0 ratings
1 star 2 stars 3 stars 4 stars 5 stars
comments

Mexico Tab

INCUBUS - Mexico
tabbed by Liam Wright  (liam504@hotmail.com) 
verse (main riff)
e  -----------------------------------------------------------------------------------------------------------------------
B  -----------------------------------------------------------------------------------------------------------------------
G  -------------9------------------9--------------------------9-------------------9--------------------------7------------
D  -------9-----9------------9-----9--------------------------9-------------------9--------------------------0------------
A  7-------------------7---------------------------------7-------------------7--------------------------8-----------------
E  -------------------------------------------------8-------------------8--------------------------6----------------------

e  -----------------------------------------------------------------------------------------------------------------------
B  -----------------------------------------0-------------------0--------------------------8-------------------8----------
G  --------------7--------------------------2-------------------2--------------------------9-------------------9----------
D  --------------0--------------------------------------------------------------------9-------------------9---------------
A  -------8--------------------------3-------------------3-------------------7-------------------7------------------------
E  6--------------------------1-------------------1-----------------------------------------------------------------------

e  -----------------------------------------------------------------------------------------------------------------------
B  ------------------------------------------------------------------------------------------------------------0----------
G  --------------9-------------------9--------------------------7-------------------7--------------------------2----------
D  --------------9-------------------9--------------------------0-------------------0-------------------------------------
A  -------7-------------------7--------------------------8-------------------8--------------------------3-----------------
E  8-------------------8--------------------------6-------------------6--------------------------1------------------------

e  -----------------------------------------------------------------------------------------------------------------------
B  --------------0--------------------------------------------------------------------------------------------------------
G  --------------2--------------------------------------------------------------------------------------------------------
D  -----------------------------------------------------------------------------------------------------------------------
A  -------3---------------------------------------------------------------------------------------------------------------
E  1----------------------------------------------------------------------------------------------------------------------
[ Tab from: http://www.guitartabs.cc/tabs/i/incubus/mexico_tab_ver_2.html ]
:
 corus (riff 2)
e  -----------------------------------------------------------------------------------------------------------------------
B  -----------------------------------------------------------------------------------------------------------------------
G  ---------------------0-------------------------------------------------------------------------------------------------
D  --------------2------------2-----2------------5------------5-----5-----5-----5-----5-----5-----5-----------------------
A  -------2-------------------2-----2------------5------------5-----5-----5-----5-----5-----5-----5-----------------------
E  0--------------------------0-----0------------3------------3-----3-----3-----3-----3-----3-----3-----------------------

e  -----------------------------------------------------------------------------------------------------------------------
B  ---------------------0-------------------------------------------------------------------------------------------------
G  --------------5--------------------------------------------------------------------------------------------------------
D  -------5-------------------5------7------------7-----7-----7-----7-----7-----7-----7-----------------------------------
A  3---------------------------------7------------7-----7-----7-----7-----7-----7-----7-----------------------------------
E  ----------------------------------5------------5-----5-----5-----5-----5-----5-----5-----------------------------------

e  -----------------------------------------------------------------------------------------------------------------------
B  -----------------------------------------------------------------------------------------------------------------------
G  ---------------------0-------------------------------------------------------------------------------------------------
D  --------------2------------2-----2------------5------------5-----5-----5-----5-----5-----5-----5-----------------------
A  -------2-------------------2-----2------------5------------5-----5-----5-----5-----5-----5-----5-----------------------
E  0--------------------------0-----0------------3------------3-----3-----3-----3-----3-----3-----3-----------------------

e  -----------------------------------------------------------------------------------------------------------------------
B  ------------0----------------------------------------------------------------------------------------------------------
G  5-----5-----5-----5-----5----------------------------------------------------------------------------------------------
D  5-----5-----5-----5-----5------------7------------7-----7-----7-----7-----7-----7-----7--------------------------------
A  3-----3-----3-----3-----3------------7------------7-----7-----7-----7-----7-----7-----7--------------------------------
E  -------------------------------------5------------5-----5-----5-----5-----5-----5-----5--------------------------------

I haven't figured out the bridge yet.
after corus repeat verse again and
then corus again.Then go into bridge
and back to corus for a few more times.


Comments