Incubus - Mexico Chords & Tabs

 

Mexico Chords & Tabs

Incubus Chords & Tabs

Version: 14 Type: Tab 0 ratings
1 star 2 stars 3 stars 4 stars 5 stars
comments

Mexico Tab

Hey this is a good song !!!!
Enjoy !!!

Only 1 more thing don't say the same crap "this is my first tab"
because it is starting to piss me off

normal turnning 


VERSE
e-------0---------0---------0---------0------------------------------------0--
B-------0---------0---------0---------0------------------------------------x--
G----4---------4----------------------------------7-------------7----------2--
D-2---------2------------5---------5--------------8-------------8-------------
A---------------------3---------3--------------8-------------8----------3-----
E----------------------------------------0--6----------0--6---------1---------

e-----------0-------
B-----------x-------
G-----------2-------
D-------------------
A------3------------
E--1----------------


e-----------------------------0--------0------------------------------------0--
B---------8---------8---------0--------0------------------------------------x--
G---------9---------9-------------------------------7-------------7---------2--
D-----9---------9----------5--------5---------------8-------------8------------
A--7----------7-----------3---------3------------8-------------8---------3-----
E------------------------------------------0--6----------0--6---------1--------


e-----------0------
B-----------x------
G-----------2------
D-----------------
A------3-----------
E--1---------------


REPEAT AS NEEDED


CHORUS
[ Tab from: http://www.guitartabs.cc/tabs/i/incubus/mexico_tab_ver_14.html ]
e---------------------------------------------------------------
B----------------------------------------0----------------------
G-------------------------------------0-----0------------------- ( )= Optional
D-----------4----4444-----555------5-----------5-------(777777)-
A-------2--------2222-----555---3-----------------3-----777777--
E---0------------0000-----333---------------------------555555--


e------------------------------------------------------------------------
B------------------------------------------------------------------------
G-------------------------------------7----777--------5----555555--------
D----------4----4444-----555-------7-------777-----5-------555555--------
A-------2-------2222-----555----5----------555--3----------333333--------
E---0-----------0000-----333---------------------------------------------



REPEAT AS NEEDED



INTERLUDE

e---------------22222---------------------------------------------------
B---------------44444---------------------------------------------------
G-------444-----22222--------------55555--------------------------------  X 3
D---5---555-----44444----4444------55555--------------------------------
A---5---555-----22222----2222------33333--------------------------------
E---3---333--------------0000-------------------------------------------


e-------00000-----------------------------------------------------------
B-------22222-----------------------------------------------------------
G-------00000-------------5555------------------------------------------  X 1
D-------55555-------------5555------------------------------------------
A-------44444----0---2----3333------------------------------------------
E-----------------------------------------------------------------------


THEN

*CHORUS 
*VERSE

For this find the rhythm yourself.
Comments