Incubus - Mexico Chords & Tabs

 

Mexico Chords & Tabs

Incubus Chords & Tabs

Version: 11 Type: Tab 0 ratings
1 star 2 stars 3 stars 4 stars 5 stars
comments

Mexico Tab

   
Incubus
Mexico
Morning View
(All tabbing done by Matt Davis, email at crazy311manmatt@hotmail.com
Do me a favor and use this for private study, etc.)
This should be entirely correct. Of course I didnít have enough time to tab it out 
accordingly to the timing. I am, however, assuming you are all not idiots and know 
how to just listen to a song.

Standard Tuning [Eadgbe]; Acoustic Guitar

MAIN RIFF (Intro/Verse)
     Esus4         Em/C          A#/Bb            Am/F                              
E------0-----0---------------------------------0-----0--
B------------------5-----5------------------------------
G----4-4---4-4-----4-----4-------7-------7-----2-----2--
D--2-----2-------5-----5---------8-------8--------------
A--------------3-----3---------8-------8-----3-----3----
E--------------------------0-6-----0-6-----1-----1------
     Em/B
E----------------------------------------------0-----0--
B------8-----8-----5-----5------------------------------
G------9-----9-----4-----4-------7-------7-----2-----2--
D----9-----9-----5-----5---------8-------8--------------
A--7-----7-----3-----3---------8-------8-----3-----3----
E--------------------------0-6-----0-6-----1-----1------
[ Tab from: http://www.guitartabs.cc/tabs/i/incubus/mexico_tab_ver_11.html ]
Chorus
     Em   Emadd9     G5            N/C          Em/A
E-------------------------------------------------------------
B-------------------------------------(0)---------------------
G------0-0-0-0-----------------------0---0--0--0-0-0-0-0-0-0--
D------5-4-4-4-5--5-5-5-5-5-5-5----5--------2--2-2-2-2-2-2-2--
A----2-2-2-2-2-5--5-5-5-5-5-5-5--3----------0--0-0-0-0-0-0-0--
E--0-0---0-0-0-3--3-3-3-3-3-3-3-------------------------------
                                   D5           C5
E------------------------------------------------------------
B------------------------------------------------------------
G------0-0-0-0-------------------7--7-7---5--5-5-5-5-5-5-5---
D------5-4-4-4-5--5-5-5-5-5-5-5--7--7-7---5--5-5-5-5-5-5-5---
A----2-2-2-2-2-5--5-5-5-5-5-5-5--5--5-5-0-3--3-3-3-3-3-3-3---
E--0-0---0-0-0-3--3-3-3-3-3-3-3------------------------------

Riff 2, similar to Main Riff
E------0-----0-------------------------------------0-----0--
B------------------5-----5----------------------------------
G----4-4---4-4-----4-----4-----------7-------7-----2-----2--
D--2-----2-------5-----5-------------8-------8--------------
A--------------3-----3-----3-0-----8-------8-----3-----3----
E------------------------------0-6-----0-6-----1-----1------
     
E--------------------------------------------------0-----0--
B------8-----8-----5-----5----------------------------------
G------9-----9-----4-----4-----------7-------7-----2-----2--
D----9-----9-----5-----5-------------8-------8--------------
A--7-----7-----3-----3-----3-0-----8-------8-----3-----3----
E------------------------------0-6-----0-6-----1-----1------

Interlude (Uhhh..)
        G5            B7             Esus2        C5
E--------------------------------------------------------------
B--------------4--4-4-4-4-4-4-4--------------------------------
G-------4-4-4--2--2-2-2-2-2-2-2--4--4--4--4--5--5-5-5-5-5-5-5--
D----5--5-5-5--4--4-4-4-4-4-4-4--4--4--4--4--5--5-5-5-5-5-5-5--
A----5--5-5-5--2--2-2-2-2-2-2-2--2--2--2--2--3--3-3-3-3-3-3-3--
E----3--3-3-3--------------------0--0--0--0--------------------
        Em6                      C5
E--0--0-0-0-0--0-0-0-0--------------------------
B--2--2-2-2-2--2-2-2-2--------------------------
G--0--0-0-0-0--0-0-0-0-----5--5-5-5--5-5-5-5----
D--5--5-5-5-5--5-5-5-5-----5--5-5-5--5-5-5-5----
A--4--4-4-4-4--4-4-4-4-0-2-3--3-3-3--3-3-3-3----
E-----------------------------------------------
Comments