Incubus - Mexico Chords & Tabs

 

Mexico Chords & Tabs

Incubus Chords & Tabs

Version: 10 Type: Tab 0 ratings
1 star 2 stars 3 stars 4 stars 5 stars
comments

Mexico Tab

   
SONG: Mexico
ARTIST: Incubus
ALBUM: Morning View
TAB: Mikey
E-MAIL: mikey@mikeybaby.cjb.net


TUNING: Standard (E-A-D-G-B-E)
*acoustic*


Awesome song! I haven't seen a totally accurate tab of this song yet, I've seen a couple
but think mine is more accurate (cept I'm not sure about the start of the chorus).


INTRO
E |------------0--------0--------0--------0-----------------------------0--------0-----|
B |------------0--------0--------0--------0-----------------6-----------0--------0-----|
G |---------------------------------------------------7--------7-----------------------|
D |---------9--------9--------5--------5--------------0--------0-----------------------|
A |------7--------7--------3--------3--------------8--------8--------3--------3--------|
E |------------------------------------------0--6--------6--------1--------1-----------|

E |------------0--------0--------0--------0-----------------------------0--------0-----|
B |------------8--------8--------0--------0-----------------6-----------0--------0-----|
G |---------------------------------------------------7--------7-----------------------|
D |---------9--------9--------5--------5--------------0--------0-----------------------|
A |------7--------7--------3--------3--------------8--------8--------3--------3--------|
E |------------------------------------------0--6--------6--------1--------1-----------|



VERSE
E |------------0--------0--------0--------0-----------------------------0--------0-----|
B |------------0--------0--------0--------0-----------------6-----------0--------0-----|
G |o--------------------------------------------------7--------7----------------------o|
D |o--------9--------9--------5--------5--------------0--------0----------------------o|
A |------7--------7--------3--------3--------------8--------8--------3--------3--------|
E |------------------------------------------0--6--------6--------1--------1-----------|
    (play x 3)

E |------------0--------0--------0--------0-----------------------------0--------0-----|
B |------------8--------8--------0--------0-----------------6-----------0--------0-----|
G |---------------------------------------------------7--------7-----------------------|
D |---------9--------9--------5--------5--------------0--------0-----------------------|
A |------7--------7--------3--------3--------------8--------8--------3--------3--------|
E |------------------------------------------0--6--------6--------1--------1-----------|



CHORUS
E |----------------------------------------------------------------------------|
B |-----------------------------------------------------------------8---8------|
G |---------------------------------------------5-5-5-5------------------------|
D |---------------5-5-0-5----5-5-5-5-5-5-5----5---5-5-5--7--7-7-7-7-7-7-7------|
A |---------2-2-2-2-2---5----5-5-5-5-5-5-5--3-----3-3-3--7--7-7-7-7-7-7-7------|
E |------0--0-0---------3----3-3-3-3-3-3-3---------------5--5-5-5-5-5-5-5------|

E |----------------------------------------------------------------------------|
B |----------------------------------------------------------------------------|
G |-----------------------------------------7-----7-7-7--5---5-5--5-5-5-5------|
D |---------------5-5-0-5----5-5-5-5-5-5-5--7--x--7-7-7--5---5-5--5-5-5-5------|
A |---------2-2-2-2-2---5----5-5-5-5-5-5-5--5--x--5-5-5--3---3-3--3-3-3-3------|
E |------0--0-0---------3----3-3-3-3-3-3-3--5--x--5-5-5--3---3-3--3-3-3-3------|
[ Tab from: http://www.guitartabs.cc/tabs/i/incubus/mexico_tab_ver_10.html ]
E |----------------------------------------------------------------------------|
B |-----------------------------------------------------------------8---8------|
G |---------------------------------------------5-5-5-5------------------------|
D |---------------5-5-0-5----5-5-5-5-5-5-5----5---5-5-5--7--7-7-7-7-7-7-7------|
A |---------2-2-2-2-2---5----5-5-5-5-5-5-5--3-----3-3-3--7--7-7-7-7-7-7-7------|
E |------0--0-0---------3----3-3-3-3-3-3-3---------------5--5-5-5-5-5-5-5------|

E |----------------------------------------------------------------------------|
B |----------------------------------------------------------------------------|
G |-----------------------------------------7-----7-7-7--5---5-5--5-5-5-5------|
D |---------------5-5-0-5----5-5-5-5-5-5-5--7--x--7-7-7--5---5-5--5-5-5-5------|
A |---------2-2-2-2-2---5----5-5-5-5-5-5-5--5--x--5-5-5--3---3-3--3-3-3-3------|
E |------0--0-0---------3----3-3-3-3-3-3-3--5--x--5-5-5--3---3-3--3-3-3-3------|



   repeat INTRO x 2
   repeat VERSE
   repeat CHORUS



BRIDGE
E |---------------------------------------------------------------------------|
B |---------------------------------------------------------------------------|
G |------0------0--0-0--7---------7---7-----0--0--0-0-0-----------------------|
D |------5------5--5-5--7---------7-7-7-----4--4--4-4-4---5--5-5-5-5-5-5------|
A |------5---x--5--5-5--6---6-6-6-6-6-6-6---2--2--2-2-2---3--3-3-3-3-3-3------|
E |------3---x--3--3-3--7---7-7-7---7---7-----------------3--3-3-3-3-3-3------|

E |---------------------------------------------------------------------------|
B |-----------------------------------------0---0--0--0-0-0--0-0-0--0-0-------|
G |------6-----6----6-6-----6--6--6--6-6-6--2---2--2--2-2-2--2-2-2--2-2-------|
D |------x---x-x--x-x-x--x--x--x--x--x-x-x--x---x--x--x-x-x--x-x-x--x-x-------|
A |------4---4-4--4-4-4--4--4--4--4--4-4-4--3---3--3--3-3-3--3-3-3--3-3-------|
E |------5---5-5--5-5-5--5--5--5--5--5-5-5--1---1--1--1-1-1--1-1-1--1-1-------|



   repeat CHORUS



OUTRO
E |------------0--------0--------0--------0--------------------------------0--------0-----|
B |------------0--------0--------0--------0--------------------6-----------0--------0-----|
G |------------------------------------------------------7--------7-----------------------|
D |---------9--------9--------5--------5-----5-----------0--------0-----------------------|
A |------7--------7--------3--------3-----------3-----8--------8--------3--------3--------|
E |------------------------------------------------6--------6--------1--------1-----------|

E |------------0--------0--------0--------0--------------------------------0--------0-0---|
B |------------8--------8--------0--------0--------------------6-----------0--------0-0---|
G |------------------------------------------------------7--------7-----------------------|
D |---------9--------9--------5--------5-----5-----------0--------0-----------------------|
A |------7--------7--------3--------3-----------3-----8--------8--------3--------3--------|
E |------------------------------------------------6--------6--------1--------1-----------|

E |------------0--------0--------0--------0--------------------------------0--------0-----|
B |------------0--------0--------0--------0--------------------6-----------0--------0-----|
G |------------------------------------------------------7--------7-----------------------|
D |---------9--------9--------5--------5-----5-----------0--------0-----------------------|
A |------7--------7--------3--------3-----------3-----8--------8--------3--------3--------|
E |------------------------------------------------6--------6--------1--------1-----------|

E |------------0--------0--------0--------0--------------------------------0-------0------|
B |------------8--------8--------0--------0--------------------6-----------0-------0------|
G |------------------------------------------------------7--------7----------------2------|
D |---------9--------9--------5--------5-----5-----------0--------0----------------x------|
A |------7--------7--------3--------3-----------3-----8--------8--------3----------3------|
E |------------------------------------------------6--------6--------1--------1----1------|
Comments