Incubus - Mexico Chords & Tabs

 

Mexico Chords & Tabs

Incubus Chords & Tabs

Version: 1 Type: Tab 0 ratings
1 star 2 stars 3 stars 4 stars 5 stars
comments

Mexico Tab

Incubus 
"Mexico" 
From Morning View

have fun with it, i saw it tabbed out somewhere else and it wasn't 
that great so i thought id contribute. this is my first tab so be
kind. i think i got it right tho.

This is the Main Part of the Song
E|-------0------0--------0---------0----------------------------0--------0
B|-------0------0--------0---------0----------3--------3--------0--------0
G|-----4------4-------4---------4-------------0--------0------------------
D|---2------2------------------------------3--------3---------------------
A|-----------------3---------3----------1--------1-----------3--------3---
E|--------------------------------------------------------1--------1------
[ Tab from: http://www.guitartabs.cc/tabs/i/incubus/mexico_tab.html ]
Here is the little change off 
E|-------3------3--------0---------0----------------------------0--------0
B|-------0------0--------0---------0----------3--------3--------0--------0
G|-----4------4-------4---------4-------------0--------0------------------
D|---2------2------------------------------3--------3---------------------
A|-----------------3---------3----------1--------1-----------3--------3---
E|--------------------------------------------------------1--------1------

Another Different Way its played...

E|-------0------0--------0---------0---------------------------------0--------0
B|-------0------0--------0---------0---------------3--------3--------0--------0
G|-----4------4-------4---------4------------------0--------0------------------
D|---2------2-----------------------------------3--------3---------------------
A|-----------------3---------3--------3--0---1--------1-----------3--------3---
E|-------------------------------------------------------------1--------1------

Chorus: (Play around with strumming and picking the notes.....)
E|-----------------------
B|-----------------------
G|---0----0----0----0----
D|---4----0----5----2----
A|---2----5----3----0----
E|---0----3--------------

Refrain: (Again, just listen to how it sounds.....)
E|-----------------------
B|-----------------------
G|---0----0---------0----
D|---0----4----0----0----
A|---5----2----2----3----
E|---3---------0---------

these are another two chords used 
E|--------------------
B|--------------------
G|---0----------------
D|--------3-----------
A|---7----3-----------
E|---5----1-----------
Comments