Incubus - Mexico Chords & Tabs

 

Mexico Chords & Tabs

Incubus Chords & Tabs

Version: 1 Type: Bass Tab 0 ratings
1 star 2 stars 3 stars 4 stars 5 stars
comments

Mexico Bass Tab

Band- Incubus
Song- Mexico



first off i would like to say that i know this song has no bass.....but if you want
 to play it here is something i have been tinkering around with....oh yeah, for a
 better sound pluck the notes with your fingernails.....i just modified this to make
 it sound better
[ Tab from: http://www.guitartabs.cc/tabs/i/incubus/mexico_btab.html ]
Intro/Verse
G|12-12---9-9--------------|
D|---------------8-8---3-3-|
A|-------------------------| repeat until the chorus (the number of times varies so
E|-------------------------| listen closely

Chorus
G|4-4-4-4-4-4--------------|
D|-------------5-5-5-5-5-5-|
A|-------------------------|
E|-------------------------| play that once then wait for the guitar to finish
 strumming then play this:

G|----------------------------|
D|---2-2-2-2-2-2--------------|
A|----------------3-3-3-3-3-3-|
E|----------------------------| the chorus should repeat directly after you finish
 that....again play until done and listen closely......
Comments