Incubus - Megalomaniac Chords & Tabs

 

Megalomaniac Chords & Tabs

Incubus Chords & Tabs

Version: 8 Type: Tab 0 ratings
1 star 2 stars 3 stars 4 stars 5 stars
comments

Megalomaniac Tab

Band: Incubus
Album: A Crow Left of the Murder
Song: Megalomaniac
Tab by Patper
 

Drop D tuning - DADGBE


  Intro
  Light Distortion 
E|-----------------|
B|-----------------|
G|-0-0-0-0-0-0-0-0-| 4x He bends the middle D string on this first part almost 
D|-5-5-5-5-5-5-5-5-|    randomly, so just play around with it and you'll get it.
A|-----------------|
D|-----------------|

E|----------------------------------|
B|----------------------------------|
G|-0---0-0-0-0-0-0-----0-0-----0----| Play this a few times...
D|-3/5-5-5-8-8-8-8---8-8-8-8-8-8-8--|
A|-----------------6-6-6-6-6-6-6-6--|
D|----------------------------------|

E|----------------------------------|
B|----------------------------------|
G|-0---0-0-0-0-0-0-----0-0-----0----| 
D|-3/5-5-5-8-8-8-8---8-8-8-8-8-8-8--|
A|-----------------6-6-6-6-7-7-7-7--|
D|----------------------------------|

  Heavy Distortion
E|----------------------------|
B|----------------------------|
G|--------------8-8-8--5-5-5--| x4
D|-5--3-5--8-8--x-x-x--x-x-x--|
A|-5--3-5--8-8--6-6-6--3-3-3--|
D|-5--3-5--8-8----------------|

  Verse 
  Light Distortion
E|-----------------------------------------|
B|-------6----------6--------------8-------|
G|-0---0--------3-----3--------7-----7---7-|
D|-3/5-5----------5-----5--------5-----5---|
A|-----------------------------------------|
D|-----------------------------------------|

E|-------------------------------------|
B|-0-----0---------8-------------6-----|
G|-0---0-0-----7-----7-------3-----3---|
D|-5\3-3-3-------5-----5-------5-----5-|
A|-------------------------------------|
D|-------------------------------------|

E|-----------------------------------------|
B|-------6----------6--------------8-------|
G|-0---0--------3-----3--------7-----7---7-|
D|-3/5-5----------5-----5--------5-----5---|
A|-----------------------------------------|
D|-----------------------------------------|

E|----------------------|
B|-0-----0--------------| (This part is hard to hear, this may be wrong)
G|-0---0-0----------0---|
D|-5\3-3-3br--3---3---3-|
A|--------------1-------|
D|----------------------|

E|---------------------3-----|
B|-------8-------------------|
G|---7-----7-------3-----3---|
D|-5---5-----5---5---5-----5-|
A|---------------------------|
D|---------------------------|

  Pre-chorus
E|----------------------------------|
B|----------------------------------|
G|-0---0-0-0-0-0-0-----0-0-----0----| 
D|-3/5-5-5-8-8-8-8---8-8-8-8-8-8-8--|
A|-----------------6-6-6-6-7-7-7-7--|
D|----------------------------------|
[ Tab from: http://www.guitartabs.cc/tabs/i/incubus/megalomaniac_tab_ver_8.html ]
E|-------------------------------|
B|-------------------------------|
G|-0---0-0-0-0-0-0--8-8-8--5-5-5-| 
D|-3/5-5-5-8-8-8-8--x-x-x--x-x-x-|
A|------------------6-6-6--3-3-3-|
D|-------------------------------|

  Chorus
  Heavy Disortion
E|----------------------------|
B|----------------------------|
G|--------------8-8-8--5-5-5--| x4
D|-5--3-5--8-8--x-x-x--x-x-x--|
A|-5--3-5--8-8--6-6-6--3-3-3--|
D|-5--3-5--8-8----------------|

  Verse 2
  Light Distortion
E|--------------------------------------------|
B|-------6----5-6-5-6-5-6-8----8----------6---|
G|-0---0--------------------------7-\-3-----3-|
D|-3/5-5--------------------------------5-----|
A|--------------------------------------------|
D|--------------------------------------------|

E|-----------------------------------------|
B|-------6----------6--------------8-------|
G|-0---0--------3-----3--------7-----7---7-|
D|-3/5-5----------5-----5--------5-----5---|
A|-----------------------------------------|
D|-----------------------------------------|

E|-------------------------------------|
B|-0---0-0---------8-------------6-----|
G|-0---0-0-----7-----7-------3-----3---|
D|-5\3-3-3-------5-----5-------5-----5-|
A|-------------------------------------|
D|-------------------------------------|

E|----------------------------------------------|
B|-------6---5-6-5-6-5-6------6-----------8-----|
G|-0---0------------------3-----3-----7-----7---|
D|-3/5-5--------------------5-----5-----5-----5-|
A|----------------------------------------------|
D|----------------------------------------------|

E|-----------------------------------------3-----|
B|-0-----0-------------------8-------------------| 
G|-0---0-0---------0-----7-----7-------3-----3---|            
D|-5\3-3-3b--3---3-----5---5-----5---5---5-----5-|
A|-------------1---------------------------------|
D|-----------------------------------------------|

Pre-chorus

Chorus

  Bridge
E|-----9-----9-----9-----9----------9------9------9------9---|
B|---9-----9-----9---9-----9------9------9------9---9------9-|
G|-9-----9-----9-------9-------12-----12-----12-------12-----| x2
D|-----------------------------------------------------------|
A|-----------------------------------------------------------|
D|-----------------------------------------------------------|

  This part is most likely wrong :( 
E|--------------------------------|
B|-8-8-6-8--8-6-8--8-8-6-8-10-8-6-| 
G|-8-8-6-8--8-6-8--8-8-6-8-10-8-6-| 8x, last four with flange
D|--------------------------------| 
A|--------------------------------|
D|--------------------------------|

Chorus 8x, last 4 with flange


That's it! This song is really good, I am highly anticipating their new album!
Questions/comments/corrections please send to Patper at: orange_guy546@yahoo.com
Comments