Incubus - Megalomaniac Chords & Tabs

 

Megalomaniac Chords & Tabs

Incubus Chords & Tabs

Version: 7 Type: Tab 0 ratings
1 star 2 stars 3 stars 4 stars 5 stars
comments

Megalomaniac Tab

Band: Incubus
Song:Megalomaniac
Album:A Crow left of Murder
tabbed by: Reinaldo Gonzalez
Effects: Distortion, Flanger, Delay

I had problem in the last tab of megalomaniac (ver2), because
i had megalomaniac live. But, the verse is complete now

Tuning Standard (EADGBe)

Flanger tuning
 __    __    __    __
/\ \  / /\  /\ \  /| \
\__/  \__/  \__/  \__/
Delay Speed Width Regen

Intro: (Distortion)
e|-----------------------------------------------|
B|-----------------------------------------------|
G|-0-0-0-0-0-0-0>>--0/0-0-0-0-0-0-0-0-0/0-0/0-0--|
D|-5-5-5-5-5-5-5>>--3/5-5-5-7-8-8-0-1-1/3-3/5-5--|
A|-----------------------------------------------| X8
E|-----------------------------------------------|


Post-Intro: (Distortion+flanger)
e|--------------------------------|
B|--------------------------------|
G|-----------8-8-5-5-5------------|
D|-5-5-3-3/5-8-8-5-5-5------------|
A|-5-5-3-3/5-6-6-3-3-3------------| X4
E|-3-3-1-1/3-6-6-3-3-3------------|

Verse 1: (flanger/Delay)
e|--------------------------------------------|
B|-------6^--6---------6--------------8-6-----|
G|--------------------------------------------|
D|-3-5-0---5-------5-------5------8-------8---|
A|---------------3---3-------3--6---6---------|
E|--------------------------------------------|
And them!
e|---------------------------------------|
B|------------------8-6----------6-4-----|
G|-------3^------------------------------|
D|-3-5-0--------8------8-----5-------5---|
A|------------6---6--------3---3---------| X2
E|---------------------------------------|

Pre-Chorus: (Flanger+distortion)
e|-------------------------------------------|
B|-------------------------------------------|
G|--0-0-0-0-0-0-0-0/0-0-0-0-0-0-0-0-0/0-0----|
D|--5-5-5-5-7-7-3-3/5-5-5-7-8-8-0-1-1/3-3----|
A|-------------------------------------------| X2
E|-------------------------------------------|

Chorus 1: (Distortion)
e|--------------------------------|
B|--------------------------------|
G|-----------8-8-5-5-5------------|
D|-5-5-3-3/5-8-8-5-5-5------------|
A|-5-5-3-3/5-6-6-3-3-3------------| X4
E|-3-3-1-1/3-6-6-3-3-3------------|


Pre-Verse: (flanger/delay)
e|-------------------------------------------------|
B|--------6^--6-6-6-6---------8-6----------6--4----|
G|-------------------------------------------------|
D|-3-5-0-----5-5-5-5------8-------8----5--------5--|
A|----------------------6---6--------3---3---------|
E|-------------------------------------------------|
[ Tab from: http://www.guitartabs.cc/tabs/i/incubus/megalomaniac_tab_ver_7.html ]
Verse 2: (flanger/Delay)
e|--------------------------------------------|
B|-------6^--6---------6--------------8-6-----|
G|--------------------------------------------|
D|-3-5-0---5-------5-------5------8-------8---|
A|---------------3---3-------3--6---6---------|
E|--------------------------------------------|
And them!
e|---------------------------------------|
B|------------------8-6----------6-4-----|
G|-------3^------------------------------|
D|-3-5-0--------8------8-----5-------5---|
A|------------6---6--------3---3---------| X2
E|---------------------------------------|

Pre-Chorus: (Flanger+distortion)
e|-------------------------------------------|
B|-------------------------------------------|
G|--0-0-0-0-0-0-0-0/0-0-0-0-0-0-0-0-0/0-0----|
D|--5-5-5-5-7-7-3-3/5-5-5-7-8-8-0-1-1/3-3----|
A|-------------------------------------------|X2
E|-------------------------------------------|

Chorus 2: (distortion)
e|--------------------------------|
B|--------------------------------|
G|-----------8-8-5-5-5------------|
D|-5-5-3-3/5-8-8-5-5-5------------|
A|-5-5-3-3/5-6-6-3-3-3------------| X4
E|-3-3-1-1/3-6-6-3-3-3------------|
And them! (distortion+flanger)
e|----------------------------------|
B|----------------------------------|
G|-----------8-8-5-5-5--------------|
D|-5-5-3-3/5-8-8-5-5-5--------------|
A|-5-5-3-3/5-6-6-3-3-3--------------| X4
E|-3-3-1-1/3-6-6-3-3-3-----////////-|
                          (last time)

Bridge 1: (delay/flanger)
e|----10----10----10-------------|
B|---8-----8-----8---8---8-------|
G|-10----10----10-----10---10----|
D|-------------------------------|
A|-------------------------------| X4
E|-------------------------------|
And them! (Flanger+distortion)
e|----------------------------------|
B|--0--0-0--0--0-0--0--0--0--0--0---|
G|-12-12-0-12-12-0-12-12-10-12-13---|
D|----------------------------------|
A|----------------------------------|  X.. (in the last time Mike add
E|----------------------------------|       other pedals: octaver or
                                            compresor sustainer)
Pre-Outro: (Distortion+flanger)
e|-------------------|
B|-------------------|
G|-0-0-0-0-0-0-0>>---|
D|-5-5-5-5-5-5-5>>---|
A|-------------------| 
E|-------------------|

Outro: (Distortion)
e|--------------------------------|
B|--------------------------------|
G|-----------8-8-5-5-5------------|
D|-5-5-3-3/5-8-8-5-5-5------------|
A|-5-5-3-3/5-6-6-3-3-3------------| X4
E|-3-3-1-1/3-6-6-3-3-3------------|
And them! (distortion+flanger)
e|----------------------------------|
B|----------------------------------|
G|-----------8-8-5-5-5//------------|
D|-5-5-3-3/5-8-8-5-5-5//------------|
A|-5-5-3-3/5-6-6-3-3-3//------------| X4
E|-3-3-1-1/3-6-6-3-3-3//------------|
                       


 Chers! check my other tabs:
 New Skin ver4, Pardon me ver9, privilege ver8, stellar ver6, the Warmth ver7,
Warning ver9, wish you were here ver11, clean ver4,Favorite things ver2
Comments