Incubus - Megalomaniac Chords & Tabs

 

Megalomaniac Chords & Tabs

Incubus Chords & Tabs

Version: 3 Type: Tab 1 rating
1 star 2 stars 3 stars 4 stars 5 stars
comments

Megalomaniac Tab

Alright…don’t forget this is Incubus, so tune to Dropped D.

Intro:

E-------------------------------------------------------------------
B-------------------------------------------------------------------
G--0-0-0-0-0-0-----0-0-0-0-0-0-----0-0-0-0-0-0-----0-0-0-0-0-0------
D--5-5-5-5-5-5b--5-5-5-5-5-5-5b--5-5-5-5-5-5-5b--5-5-5-5-5-5-5b-----
A-------------------------------------------------------------------
D-------------------------------------------------------------------

Repeat as necessary.


E-------------------------------------------------------------------
B-------------------------------------------------------------------
G--0---0-0---0-0-0-0-0---0-0-0-0-0-0---0-0---0-0-0-0-0---0-0-0-0-0-0
D--3/5-5-5/8-8-8-8-8-8/2-2-2-2-2-2-2/5-5-5/8-8-8-8-8-8/2-2-2-2-2-2-2
A-------------------------------------------------------------------
D-------------------------------------------------------------------

Repeat as necessary.
[ Tab from: http://www.guitartabs.cc/tabs/i/incubus/megalomaniac_tab_ver_3.html ]
E-------------------------------------------------------------------
B-------------------------------------------------------------------
G--0---0-0---0-0-0-0-0---0-0-0-0-0-0---0-0---0-0-0-0-0---0-0-0-0-0-0
D--3/5-5-5/8-8-8-8-8-8/2-2-2-2-3-3-3/5-5-5/8-8-8-8-8-8/2-2-2-2-3-3-3
A-------------------------------------------------------------------
D-------------------------------------------------------------------

Repeat as necessary.


Main Riff:

E-------------------------------------------------------------------
B-------------------------------------------------------------------
G—------------------------------------------------------------------
D----5~-3-5~-3-3h5//////13-13-13-10-10-10---------------------------
A----5~-3-5~-3-3h5//////13-13-13-10-10-10------(repeat often)-------
D----5~-3-5~-3-3h5//////13-13-13-10-10-10---------------------------


…listen to song for timing; pretty easy jam and it sounds good.  
Hope this helps someone.

Comments