Incubus - Megalomaniac Chords & Tabs

 

Megalomaniac Chords & Tabs

Incubus Chords & Tabs

Version: 2 Type: Tab 1 rating
1 star 2 stars 3 stars 4 stars 5 stars
comments

Megalomaniac Tab

Song: Megalomaniac (Off incubus up-and-coming album “A Crow Left of the Murder”)
Artist: Incubus (obviously)
NOTE *I heard this live at lollapalooza and am only going off that so this might not be EXACTLY right, but its pretty close*

INTRO
---------------------------------------------------------------------
---------------------------------------------------------------------
---------------------------------------------------------------------
---7----7-----7-h 10---10--10--10--10---10---------------------------
---0----0-----0----------8----8---8----9-----------------------------
---------------------------------------------------------------------
[ Tab from: http://www.guitartabs.cc/tabs/i/incubus/megalomaniac_tab_ver_2.html ]
CHORUS
---------------------------------------------------------------------
---------------------------------------------------------------------
---------------------10---------7------------------------------------
---7----7-h-10-------10---------7------------------------------------
---0----0------------8----------5------------------------------------
--(0)----------------------------------------------------------------

VERSE

-----------------------------------------------0---------------------5---3---0--
--------------8-----------------------0------------------------------------------
--------------------------------------------0------------------------------------
--------7---------------------10----------------------------7-------------------
----0-------------------8-----------------------------5-------------------------

I DON’T KNOW THE INTERLUDE BUT THAT’S THE JUST OF THE SONG…ENJOY...AND DON’T FORGET TO BUY THEIR NEW CD ON FEBFRUARY 3RD!
Comments