Incubus - Megalomaniac Chords & Tabs

 

Megalomaniac Chords & Tabs

Incubus Chords & Tabs

Version: 10 Type: Tab 0 ratings
1 star 2 stars 3 stars 4 stars 5 stars
comments

Megalomaniac Tab

Incubus - Megalomaniac (Studio Version)
Album: A Crow Left of the Murder
Tabbed by: TheTuneman (12/25/03)

This tab is the whole song played straight through with a couple 
of repeats. Comments are appreciated.



E|----------------------------------------------------------------
B|----------------------------------------------------------------
G|--0-0-0-0-0-0-----0-0-0-0-0-0-----0-0-0-0-0-0-----0-0-0-0-0-0---
D|--5-5-5-5-5-5b--5-5-5-5-5-5-5b--5-5-5-5-5-5-5b--5-5-5-5-5-5-5b--
A|----------------------------------------------------------------
E|----------------------------------------------------------------



E|----------------------------------------------------------------
B|----------------------8-8----8-------------------------8-8----8-
G|--0---0-0---0-0-------0-0----0-----0---0-0---0-0-------0-0----0-
D|--3/5-5-5/8-8-8-0---8-8-8----8---0-3/5-5-5/8-8-8-0---8-8-8----8-
A|------------------6---6-6--6-6---------------------6---6-6--6-6-
E|----------------------------------------------------------------



E|----------------------------------------------------------------
B|-----------------------8-8----8-------------------------8-8----8
G|---0---0-0---0-0-------0-0----0-----0---0-0---0-0-------0-0----0   X2
D|-0-3/5-5-5/8-8-8-0---8-8-8----8---0-3/5-5-5/8-8-8-0---8-8-8----8
A|-------------------6---6-6--6-6---------------------6---6-6--6-6
E|----------------------------------------------------------------



E|----------------------------------------------------------------
B|-----------------------8-8----8---------------------------------
G|---0---0-0---0-0-------0-0----0-----0---0-0---0-0---8-8-8-------
D|-0-3/5-5-5/8-8-8-0---8-8-8----8---0-3/5-5-5/8-8-8-0-8-8-8--8-8-8
A|-------------------6---6-6--6-6---------------------6-6-6--7-7-7
E|-----------------------------------------------------------8-8-8



E|----------------------------------------------------------------
B|----------------------------------------------------------------
G|---------------8-8-8-----------------------8-8-8----------------   X2
D|--5----5/8-8---8-8-8--8-8-8---5----5/8-8---8-8-8--8-8-8---------
A|--5--0-5/8-8-0-6-6-6--7-7-7---5--0-5/8-8-0-6-6-6--7-7-7---------
E|--3--0-3/6-6-0--------8-8-8---3--0-3/6-6-0--------8-8-8---------

   "Ah, ha!"



E|-------------------------|--------1-----------------3-----------
B|--------6----------------|----3-----3-----------6------6---6----
G|--0---0------------------|--------------------------------------
D|--3/5--------------------|--------------------------------------
A|-------------------------|--3---3-------------6---6------6------
E|-------------------------|--------------------------------------

           "I hear you on the radio."



E|-------------------------|--------3-----------------1-----------
B|-------(0)---------------|----6------6----------3------3--------
G|--0-----0----------------|--------------------------------------
D|--5\3-3-3----------------|--------------------------------------
A|-------------------------|--6---6------6------3---3------3------
E|-------------------------|--------------------------------------



E|-------------------------|--------1-----------------3-----------
B|--------6----------------|----3------3----------6------6---6----
G|--0---0------------------|--------------------------------------
D|--3/5--------------------|--------------------------------------
A|-------------------------|--3---3------3------6---6------6------
E|-------------------------|--------------------------------------



E|-------------------------|--------3------------------1----------
B|-------(0)---------------|----6------6-----------3------3---3---
G|--0-----0---------0------|--------------------------------------
D|--5\3-3-3b------3--------|--------------------------------------
A|--------------3-----2----|--6---6------6-------3---3------3-----
E|----------------------3--|--------------------------------------



E|----------------------------------------------------------------
B|-----------------------8-8----8---------------------------------
G|---0---0-0---0-0-------0-0----0-----0---0-0---0-0---8-8-8-------
D|-0-3/5-5-5/8-8-8-0---8-8-8----8---0-3/5-5-5/8-8-8-0-8-8-8--8-8-8
A|-------------------6---6-6--6-6---------------------6-6-6--7-7-7
E|-----------------------------------------------------------8-8-8



E|----------------------------------------------------------------
B|----------------------------------------------------------------
G|---------------8-8-8-----------------------8-8-8----------------   X2
D|--5----5/8-8---8-8-8--8-8-8---5----5/8-8---8-8-8--8-8-8---------
A|--5--0-5/8-8-0-6-6-6--7-7-7---5--0-5/8-8-0-6-6-6--7-7-7---------
E|--3--0-3/6-6-0--------8-8-8---3--0-3/6-6-0--------8-8-8---------

   "Hey, Megalomaniac!"


[ Tab from: http://www.guitartabs.cc/tabs/i/incubus/megalomaniac_tab_ver_10.html ]
E|-------------------------|--------3------------------1----------
B|--------6-5h6p5h6p5h6p5--|----6------6-----------3------3---3---
G|--0---0------------------|--------------------------------------
D|--3/5--------------------|--------------------------------------
A|-------------------------|--6---6------6-------3---3------3-----
E|-------------------------|--------------------------------------



E|-------------------------|--------1------------------3----------
B|--------6----------------|----3------3-----------6------6---6---
G|--0---0------------------|--------------------------------------
D|--3/5--------------------|--------------------------------------
A|-------------------------|--3---3------3-------6---6------6-----
E|-------------------------|--------------------------------------



E|-------------------------|--------3------------------1----------
B|-------(0)---------------|----6------6-----------3------3---3---
G|--0-----0----------------|--------------------------------------
D|--5\3-3-3----------------|--------------------------------------
A|-------------------------|--6---6------6-------3---3------3-----
E|-------------------------|--------------------------------------



E|-------------------------|--------1------------------3----------
B|--------6-5h6p5h6p5h6p5--|----3------3-----------6------6---6---
G|--0---0------------------|--------------------------------------
D|--3/5--------------------|--------------------------------------
A|-------------------------|--3---3------3-------6---6------6-----
E|-------------------------|--------------------------------------



E|-------------------------|--------3------------------1----------
B|-------(0)---------------|----6------6-----------3------3---3---
G|--0-----0---------0------|--------------------------------------
D|--5\3-3-3b------3--------|--------------------------------------
A|--------------3-----2----|--6---6------6-------3---3------3-----
E|----------------------3--|--------------------------------------



E|----------------------------------------------------------------
B|-----------------------8-8----8---------------------------------
G|---0---0-0---0-0-------0-0----0-----0---0-0---0-0---8-8-8-------
D|-0-3/5-5-5/8-8-8-0---8-8-8----8---0-3/5-5-5/8-8-8-0-8-8-8--8-8-8
A|-------------------6---6-6--6-6---------------------6-6-6--7-7-7
E|-----------------------------------------------------------8-8-8


E|----------------------------------------------------------------
B|----------------------------------------------------------------
G|---------------8-8-8-----------------------8-8-8----------------   X4
D|--5----5/8-8---8-8-8--8-8-8---5----5/8-8---8-8-8--8-8-8---------
A|--5--0-5/8-8-0-6-6-6--7-7-7---5--0-5/8-8-0-6-6-6--7-7-7---------
E|--3--0-3/6-6-0--------8-8-8---3--0-3/6-6-0--------8-8-8---------

(Very slow and deep phaser is added the 3rd and 4th time around)



E|--------10--------10--------10-------10-------------10--------10
B|-----13--------13--------13----13-------13-------13--------13---
G|--10--------10--------10----------10-------10-12--------12------
D|----------------------------------------------------------------
A|----------------------------------------------------------------
E|----------------------------------------------------------------



E|--------10-------10-------------10-------10-------10-------10---
B|-----13----13-------13-------13-------13-------13----13-------13
G|--12----------12-------12-10-------10-------10----------10------
D|----------------------------------------------------------------
A|----------------------------------------------------------------
E|----------------------------------------------------------------



E|-----------10-------10-------10-------10------------------------
B|--------13-------13-------13----13-------13---------------------
G|--10-12-------12-------12----------12---------------------------
D|----------------------------------------------------------------
A|----------------------------------------------------------------
E|----------------------------------------------------------------



E|----------------------------------------------------------------
B|----------------------------------------------------------------
G|--12-12-10-12--12-10-12--12-12-10-12-14-12-10-------------------   X8
D|--10-10-10-10--10-10-10--10-10-10-10-10-10-10-------------------
A|----------------------------------------------------------------
E|----------------------------------------------------------------

(Slow phaser is again added at the 5th through 8th time around)



E|----------------------------------------------------------------
B|----------------------------------------------------------------
G|--00000000000000000000000000000000------------------------------
D|--55555555555555555555555555555555------------------------------
A|----------------------------------------------------------------
E|----------------------------------------------------------------

(Start with palm mute, then crescendo)



E|----------------------------------------------------------------
B|----------------------------------------------------------------
G|---------------8-8-8-----------------------8-8-8----------------   X4
D|--5----5/8-8---8-8-8--8-8-8---5----5/8-8---8-8-8--8-8-8---------
A|--5--0-5/8-8-0-6-6-6--7-7-7---5--0-5/8-8-0-6-6-6--7-7-7---------
E|--3--0-3/6-6-0--------8-8-8---3--0-3/6-6-0--------8-8-8---------

(Slow phaser is again added at the 3rd time around untill the end of the song)
Comments