Incubus - Make Yourself Chords & Tabs

 

Make Yourself Chords & Tabs

Incubus Chords & Tabs

Version: 8 Type: Tab 0 ratings
1 star 2 stars 3 stars 4 stars 5 stars
comments

Make Yourself Tab

   
Band- Incubus
Song- Make Yourself

  Bm                   G5                  Bbb5
      7 9 0 x x x          3 5 0 x x x          6 5 x x x x

Gtr I (E A D G B E) - 'Slightly Distorted'
Gtr II (E A D G B E) - 'Untitled'
Gtr III (E A D G B E) - 'Gt.3'

   Intro
    Moderately Slow Rock Q=74
    Bm  G5          Bbb5    Bm  G5          Bbb5
   7/8                     4/4
    Gtr I
    E S S E S S E S S S S   E S S E S S E S S S S S S
||------------------------|-----------------------------||
||o-----------------------|----------------------------o||
||------------------------|-----------------------------||
||--0-0-0-0-0-0-0---------|-0-0-0-0-0-0-0-----------0---||
||o-9-x-5-5-x-5-5-0-5-7---|-9-x-5-5-x-5-5-0-5-5-7-7----o||
||--7-x-3-3-x-3-3-0-6-6-0-|-7-x-3-3-x-3-3-0-6-6-6-6-----||


 Verse
 7/8                     4/4
  E S S E S S E S S S S   E S S E S S E S S S S S S
|-----------------------|---------------------------|
|-----------------------|---------------------------|
|-----------------------|---------------------------|
|-0-0-0-0-0-0-0---------|-0-0-0-0-0-0-0-----------0-|
|-9-x-5-5-x-5-5-0-5-7---|-9-x-5-5-x-5-5-0-5-5-7-7---|
|-7-x-3-3-x-3-3-0-6-6-0-|-7-x-3-3-x-3-3-0-6-6-6-6---|


 7/8                     4/4
  E S S E S S E S S S S   E S S E S S E S S S S S S
|-----------------------|---------------------------|
|-----------------------|---------------------------|
|-----------------------|---------------------------|
|-0-0-0-0-0-0-0---------|-0-0-0-0-0-0-0-----------0-|
|-9-x-5-5-x-5-5-0-5-7---|-9-x-5-5-x-5-5-0-5-5-7-7---|
|-7-x-3-3-x-3-3-0-6-6-0-|-7-x-3-3-x-3-3-0-6-6-6-6---|


 7/8                     4/4
  Gtr I
  E S S E S S E S S S S   E S S E S S E S S S S S S
|-----------------------|---------------------------|
|-----------------------|---------------------------|
|-----------------------|---------------------------|
|-0-0-0-0-0-0-0---------|-0-0-0-0-0-0-0-----------0-|
|-9-x-5-5-x-5-5-0-5-7---|-9-x-5-5-x-5-5-0-5-5-7-7---|
|-7-x-3-3-x-3-3-0-6-6-0-|-7-x-3-3-x-3-3-0-6-6-6-6---|
|
| Gtr II
| E S S E S S E S S S S   E S S E S S E S S S S S S
|-----------------------|---------------------------|
|---0-0---0-0---0-------|---0-0---0-0---0-----------|
|---0-0---0-0---0-------|---0-0---0-0---0-----------|
|---x-x---x-x---x-------|---x-x---x-x---x-----------|
|-9-x-5-5-x-5-5-x-7-7-7-|-9-x-5-5-x-5-5-x-5-5-7-7-7-|
|-7-x-3-3-x-3-3-x-6-6-6-|-7-x-3-3-x-3-3-x-6-6-6-6-6-|


 7/8                     4/4
  E S S E S S E S S S S   E S S E S S E S S S S S S
|-----------------------|---------------------------|
|---0-0---0-0---0-------|---0-0---0-0---0-----------|
|---0-0---0-0---0-------|---0-0---0-0---0-----------|
|---x-x---x-x---x-------|---x-x---x-x---x-----------|
|-9-x-5-5-x-5-5-x-7-7-7-|-9-x-5-5-x-5-5-x-5-5-7-7-7-|
|-7-x-3-3-x-3-3-x-6-6-6-|-7-x-3-3-x-3-3-x-6-6-6-6-6-|
|
|                       Gtr III
| W                       H           E S S S S S S
|-----------------------|---------------------------|
|-----------------------|---------------------------|
|-----------------------|---------------------------|

|-----------------------|---------------0---------0-|
|-----------------------|---------------0-5-5-7-7-0-|
|-----------------------|---------------0-6-6-6-6-0-|


  Gtrs II, III
  E. S E S S S S S S E S S   S S S S E S S S  S   S   S   S   S   S   S
|--------------------------|---------------------------------------------||
|--------------------------|---------------------------------------------||
|-7--7-7-7-7---------------|-----------------<7>-<7>-<7>-<5>-<5>-<5>-<4>-||
|-7--7-7-7-7---8-8-8-8-8-8-|---5-5-5-5-5-5-------------------------------||
|-5--5-5-5-5---8-8-8-8-8-8-|---5-5-5-5-5-5-------------------------------||
|-5--5-5-5-5---6-6-6-6-6-6-|---3-3-3-3-3-3-------------------------------||


 7/8                     4/4
  Gtr II
  E S S E S S E S S S S   E S S E S S E S S S S S S
|-----------------------|---------------------------|
|---0-0---0-0---0-------|---0-0---0-0---0-----------|
|---0-0---0-0---0-------|---0-0---0-0---0-----------|
|---x-x---x-x---x-------|---x-x---x-x---x-----------|
|-9-x-5-5-x-5-5-x-7-7-7-|-9-x-5-5-x-5-5-x-5-5-7-7-7-|
|-7-x-3-3-x-3-3-x-6-6-6-|-7-x-3-3-x-3-3-x-6-6-6-6-6-|
|
| Gtr III
| W                       W
|-----------------------|---------------------------|
|-----------------------|---------------------------|
|-----------------------|---------------------------|
|-----------------------|---------------------------|
|-----------------------|---------------------------|
|-----------------------|---------------------------|


 7/8                     4/4
  Gtr II
  E S S E S S E S S S S   E S S E S S  E  S  S    S    S  S S
|-----------------------|-------------------------------------|
|---0-0---0-0---0-------|---0-0---0-0-----0-------------------|
|---0-0---0-0---0-------|---0-0---0-0-----0-------------------|
|---x-x---x-x---x-------|---x-x---x-x-----x-------------------|
|-9-x-5-5-x-5-5-x-7-7-7-|-9-x-5-5-x-5--5--x--5----5----7--7-7-|
|-7-x-3-3-x-3-3-x-6-6-6-|-7-x-3-3-x-3--3--x--6----6----6--6-6-|
|
| Gtr III
|                                            \1
| W                       H            E.    S   +S    E.
|-----------------------|-------------------------------------|
|-----------------------|-------------------------------------|
|-----------------------|-------------------------------------|
|-----------------------|-------------<4>---<4>-(<4>)-<4>-----|
|-----------------------|-------------------------------------|
|-----------------------|-------------------------------------|


 7/8                     4/4
  Gtr II
  E S S E S S E S S S S   E S S E S S E S S S S S S
|-----------------------|---------------------------|
|---0-0---0-0---0-------|---0-0---0-0---0-----------|
|---0-0---0-0---0-------|---0-0---0-0---0-----------|
|---x-x---x-x---x-------|---x-x---x-x---x-----------|
|-9-x-5-5-x-5-5-x-7-7-7-|-9-x-5-5-x-5-5-x-5-5-7-7-7-|
|-7-x-3-3-x-3-3-x-6-6-6-|-7-x-3-3-x-3-3-x-6-6-6-6-6-|
|
| Gtr III
| E S S E S S E S S S S   E S S E S S E S S S S S S
|-----------------------|---------------------------|
|-----------------------|---------------------------|
|-----------------------|---------------------------|
|-9-x-5-5-x-5-5-x-------|-9-x-5-5-x-5-5-x-----------|
|-9-x-5-5-x-5-5-x-7-7-7-|-9-x-5-5-x-5-5-x-5-5-7-7-7-|
|-7-x-3-3-x-3-3-x-6-6-6-|-7-x-3-3-x-3-3-x-6-6-6-6-6-|


 7/8                     4/4
  Gtr II
  E S S E S S E S S S S   E S S E S S E S S S S S S
|-----------------------|---------------------------|
|---0-0---0-0---0-------|---0-0---0-0---0-----------|
|---0-0---0-0---0-------|---0-0---0-0---0-----------|
|---x-x---x-x---x-------|---x-x---x-x---x-----------|
|-9-x-5-5-x-5-5-x-7-7-7-|-9-x-5-5-x-5-5-x-5-5-7-7-7-|
|-7-x-3-3-x-3-3-x-6-6-6-|-7-x-3-3-x-3-3-x-6-6-6-6-6-|
|
| Gtr III
| E S S E S S E S S S S   E S S E S S E S S S S S S
|-----------------------|---------------------------|
|-----------------------|---------------------------|
|-----------------------|---------------------------|
|-9-x-5-5-x-5-5-x-------|-9-x-5-5-x-5-5-x-----------|
|-9-x-5-5-x-5-5-x-7-7-7-|-9-x-5-5-x-5-5-x-5-5-7-7-7-|
|-7-x-3-3-x-3-3-x-6-6-6-|-7-x-3-3-x-3-3-x-6-6-6-6-6-|


 Chorus
  $
  Gtrs II, III
  E. S E S S S S S S E S S   S S S S E S S S  S   S   S   S   S   S   S
|--------------------------|---------------------------------------------||
|--------------------------|---------------------------------------------||
|-7--7-7-7-7---------------|-----------------<7>-<7>-<7>-<5>-<5>-<5>-<4>-||
|-7--7-7-7-7---8-8-8-8-8-8-|---5-5-5-5-5-5-------------------------------||
|-5--5-5-5-5---8-8-8-8-8-8-|---5-5-5-5-5-5-------------------------------||
|-5--5-5-5-5---6-6-6-6-6-6-|---3-3-3-3-3-3-------------------------------||


  E. S E S S S S S S E S S   S S S S E S S S S S S S S S S
|--------------------------|-------------------------------|
|--------------------------|-------------------------------|
|-7--7-7-7-7---3-3-3-3-3-3-|-------------------------------|
|-7--7-7-7-7---3-3-3-3-3-3-|---5-5-5-5-5-5---3-3-3-3-3-3-3-|
|-5--5-5-5-5---1-1-1-1-1-1-|---5-5-5-5-5-5---3-3-3-3-3-3-3-|
|-5--5-5-5-5---1-1-1-1-1-1-|---3-3-3-3-3-3---1-1-1-1-1-1-1-|

[ Tab from: http://www.guitartabs.cc/tabs/i/incubus/make_yourself_tab_ver_8.html ]
  E. S E S S S S S S E S S   S S S S E S S S S S S S S E
|--------------------------|-----------------------------|
|--------------------------|-----------------------------|
|-7--7-7-7-7---3-3-3-3-3-3-|-----------------5-5-5-5-----|
|-7--7-7-7-7---3-3-3-3-3-3-|---5-5-5-5-5-5---5-5-5-5-5-7-|
|-5--5-5-5-5---1-1-1-1-1-1-|---5-5-5-5-5-5---3-3-3-3-5-7-|
|-5--5-5-5-5---1-1-1-1-1-1-|---3-3-3-3-3-3-----------3-5-|


                                                  To Coda
  E. S E S S S S S S E S S   S S S S E S S S S S S S S S S
|--------------------------|-------------------------------||
|--------------------------|-------------------------------||
|-7--7-7-7-7---3-3-3-3-3-3-|-------------------------------||
|-7--7-7-7-7---3-3-3-3-3-3-|---5-5-5-5-5-5---3-3-3-3-3-3-3-||
|-5--5-5-5-5---1-1-1-1-1-1-|---5-5-5-5-5-5---3-3-3-3-3-3-3-||
|-5--5-5-5-5---1-1-1-1-1-1-|---3-3-3-3-3-3---1-1-1-1-1-1-1-||


 Interlude
  Gtr II
  E S S +E  S S +E  S S +E  S S   E S S +E  S S +E  S S +S  S S S
|-------------------------------|---------------------------------|
|-------------------------------|---------------------------------|
|-------------------------------|---------------------------------|
|-7-x-9-(9)-x-5-(5)-x-5-(5)-x-x-|-7-x-9-(9)-x-5-(5)-x-5-(5)-x-x---|
|-9-x-7-(7)-x-7-(7)-x-x-(x)-x-x-|-9-x-7-(7)-x-7-(7)-x-x-(x)-x-x---|
|---------------------6-(6)-x-x-|---------------------6-(6)-x-x---|


  E S S +E  S S +E  S S +E  S S   E S S +E  S S +E  S S +S  S S S
|-------------------------------|---------------------------------||
|-------------------------------|---------------------------------||
|-------------------------------|---------------------------------||
|-7-x-9-(9)-x-5-(5)-x-5-(5)-x-x-|-7-x-9-(9)-x-5-(5)-x-5-(5)-x-x---||
|-9-x-7-(7)-x-7-(7)-x-x-(x)-x-x-|-9-x-7-(7)-x-7-(7)-x-x-(x)-x-x---||
|---------------------6-(6)-x-x-|---------------------6-(6)-x-x---||


 Bridge
  E S S +E  S S +E  S S +E  S S   E S S +E  S S +E  S S +S  S S S
|-------------------------------|---------------------------------|
|-------------------------------|---------------------------------|
|-------------------------------|---------------------------------|
|-7-x-9-(9)-x-5-(5)-x-5-(5)-x-x-|-7-x-9-(9)-x-5-(5)-x-5-(5)-x-x---|
|-9-x-7-(7)-x-7-(7)-x-x-(x)-x-x-|-9-x-7-(7)-x-7-(7)-x-x-(x)-x-x---|
|---------------------6-(6)-x-x-|---------------------6-(6)-x-x---|


  E S S +E  S S +E  S S +E  S S   E S S +E  S S +E  S S +S  S S S
|-------------------------------|---------------------------------|
|-------------------------------|---------------------------------|
|-------------------------------|---------------------------------|
|-7-x-9-(9)-x-5-(5)-x-5-(5)-x-x-|-7-x-9-(9)-x-5-(5)-x-5-(5)-x-0---|
|-9-x-7-(7)-x-7-(7)-x-x-(x)-x-x-|-9-x-7-(7)-x-7-(7)-x-x-(x)-x-0---|
|---------------------6-(6)-x-x-|---------------------6-(6)-x-0---|


  E S S +E  S S +E    S S +E    S S   E S S +E  S S +E    S S +S  S S S
|-----------------------------------|-----------------------------------|
|-----------------------------------|-----------------------------------|
|-----------------------------------|-----------------------------------|
|-7-x-9-(9)-x-5-(5)---x-5-(5)---x-x-|-7-x-9-(9)-x-5-(5)---x-5-(5)-x-x---|
|-9-x-7-(7)-x-7-(7)---x-x-(x)---x-x-|-9-x-7-(7)-x-7-(7)---x-x-(x)-x-x---|
|-----------------------6-(6)---x-x-|-----------------------6-(6)-x-x---|
|
| Gtr III
| H              S  S S S  S  S E     H              S  S S S  S  S E
|-----------------------------------|-----------------------------------|
|---------------------0----0----0---|---------------------0----0----0---|
|---------------------0----0----0---|---------------------0----0----0---|
|-------------------0-5-0--5--0-5---|-------------------0-5-0--5--0-5---|
|-------------------0-x-0--x--0-x---|-------------------0-x-0--x--0-x---|
|-------------------0-6-0--6--0-6---|-------------------0-6-0--6--0-6---|


  E S S +E  S S +E    S S +E    S S
|-------------------------------------|
|-------------------------------------|
|-------------------------------------|
|-7-x-9-(9)-x-5-(5)---x-5-(5)---x-x---|
|-9-x-7-(7)-x-7-(7)---x-x-(x)---x-x---|
|-----------------------6-(6)---x-x---|
|
| H              S  S S S  S  S E
|-------------------------------------|
|---------------------0----0----0-----|
|---------------------0----0----0-----|
|-------------------0-5-0--5--0-5-----|
|-------------------0-x-0--x--0-x-----|
|-------------------0-6-0--6--0-6-----|


 5/8      7/8
  W        E S S E S S S S E E   E S S E S S S S E E
|-------||---------------------|---------------------|
|-------||---------------------|---------------------|
|-------||---------------------|---------------------|
|-------||-9-x-5-5-x-5-5-5-5-5-|-9-x-5-5-x-5-5-5-5-5-|
|-------||-9-x-5-5-x-5-5-5-x-x-|-9-x-5-5-x-5-5-5-x-x-|
|-------||-7-x-3-3-x-3-3-3-6-6-|-7-x-3-3-x-3-3-3-6-6-|


                              D.S. al Coda
  E S S E S S S S E E   E S S E S S S S E E
|---------------------|---------------------||
|---------------------|---------------------||
|---------------------|---------------------||
|-9-x-5-5-x-5-5-5-5-5-|-9-x-5-5-x-5-5-5-5-5-||
|-9-x-5-5-x-5-5-5-x-x-|-9-x-5-5-x-5-5-5-x-x-||
|-7-x-3-3-x-3-3-3-6-6-|-7-x-3-3-x-3-3-3-6-6-||


  &
 4/4
  Gtr II
  E S S E S S E S S S S S S   E S S E S S E S S S S S S
|---------------------------|---------------------------|
|---0-0---0-0---0-----------|---0-0---0-0---0-----------|
|---0-0---0-0---0-----------|---0-0---0-0---0-----------|
|---x-x---x-x---x-----------|---x-x---x-x---x-----------|
|-9-x-5-5-x-5-5-x-5-5-7-7-7-|-9-x-5-5-x-5-5-x-5-5-7-7-7-|
|-7-x-3-3-x-3-3-x-6-6-6-6-6-|-7-x-3-3-x-3-3-x-6-6-6-6-6-|
|
| Gtr III
| E S S E S S E S S S S S S   E S S E S S E S S S S S S
|---------------------------|---------------------------|
|---------------------------|---------------------------|
|---------------------------|---------------------------|
|-9-x-5-5-x-5-5-x-----------|-9-x-5-5-x-5-5-x-----------|
|-9-x-5-5-x-5-5-x-5-5-7-7-7-|-9-x-5-5-x-5-5-x-5-5-7-7-7-|
|-7-x-3-3-x-3-3-x-6-6-6-6-6-|-7-x-3-3-x-3-3-x-6-6-6-6-6-|


  &
 4/4
  Gtr II
  E S S E S S E S S S S S S   E S S E S S E S  S S S S  S
|---------------------------|-----------------------------*|
|---0-0---0-0---0-----------|---0-0---0-0---0-------------*|
|---0-0---0-0---0-----------|---0-0---0-0---0-------------*|
|---x-x---x-x---x-----------|---x-x---x-x---x-------------*|
|-9-x-5-5-x-5-5-x-5-5-7-7-7-|-9-x-5-5-x-5-5-x--5-5-7-7--7-*|
|-7-x-3-3-x-3-3-x-6-6-6-6-6-|-7-x-3-3-x-3-3-x--6-6-6-6--6-*|
|
| Gtr III
|                                           ~~~~~~~~~~~~
| E S S E S S E S S S S S S   E S S E S S E Q        E
|---------------------------|-----------------------------*|
|---------------------------|-----------------------------*|
|---------------------------|-----------------------------*|
|-9-x-5-5-x-5-5-x-----------|-9-x-5-5-x-5-5---------------*|
|-9-x-5-5-x-5-5-x-5-5-7-7-7-|-9-x-5-5-x-5-5---------------*|
|-7-x-3-3-x-3-3-x-6-6-6-6-6-|-7-x-3-3-x-3-3-x\-------x\---*|


Duration Legend
---------------
W - whole; H - half; Q - quarter; E - 8th; S - 16th; T - 32nd; X - 64th; a - acciaccatura
+ - note tied to previous; . - note dotted; .. - note double dotted
Uncapitalized letters represent notes that are staccato (1/2 duration)
Irregular groupings are notated above the duration line
Duration letters will always appear directly above the note/fret number it represents the
duration for.  Duration letters with no fret number below them represent rests.  Multi-
bar rests are notated in the form Wxn, where n is the number of bars to rest for.  Low
melody durations appear below the staff

Tablature Legend
----------------
 h   - hammer-on
 p   - pull-off
 b   - bend
 pb  - pre-bend
 r   - bend release (if no number after the r, then release immediately)
 /\  - slide into or out of (from/to "nowhere")
 s   - legato slide
 S   - shift slide
  - natural harmonic
[n]  - artificial harmonic
n(n) - tapped harmonic
 ~   - vibrato
 tr  - trill
 T   - tap
 TP  - trem. picking
 PM  - palm muting
\n/  - tremolo bar dip; n = amount to dip
 \n  - tremolo bar down
 n/  - tremolo bar up
/n\  - tremolo bar inverted dip
 =   - hold bend; also acts as connecting device for hammers/pulls
 <>  - volume swell (louder/softer)
 x   - on rhythm slash represents muted slash
 o   - on rhythm slash represents single note slash

Misc Legend
-----------
 |  - bar
||  - double bar
||o - repeat start
o|| - repeat end
*|  - double bar (ending)
 :  - bar (freetime)
 $  - Segno
 &  - Coda
Tempo markers -  = BPM(8/16=s8/s16), where s8 = swing 8ths, s16 = swing 16ths


***************************************************************************************
* Generated using Power Tab Editor by Brad Larsen - http://powertab.guitarnetwork.org *
***************************************************************************************
Comments