Incubus - Make Yourself Chords & Tabs

 

Make Yourself Chords & Tabs

Incubus Chords & Tabs

Version: 3 Type: Tab 0 ratings
1 star 2 stars 3 stars 4 stars 5 stars
comments

Make Yourself Tab

   
Standard tuning- e,a,d,g,b,e

Things to know- song switches back in forth in the time signatures 7/8 and 8/8. 
LIsten to the song, it will help you learn it.

Intro and verses (lite muffled distortion)
e|----------------------------------------------
B|----------------------------------------------
G|----------------------------------------------
D|-9-7-7-7-7-----9-7-7-7-7----------------------
A|-9-7-7-7-7-5---9-7-7-7-7-5-8------------------
E|-7-5-5-5-5-6---7-5-5-5-5-6-6------------------
[ Tab from: http://www.guitartabs.cc/tabs/i/incubus/make_yourself_tab_ver_3.html ]
Chorus ( dist.)
e|----------------------------------------------------
B|----------------------------------------------------
G|--7-7-7-7-3-3------------2nd&4th play---------------
D|--7-7-7-7-3-3-5-5-5-5-5-(-3-3-3-3-3-)---------------
A|--5-5-5-5-1-1-5-5-5-5-5-(-3-3-3-3-3-)---------------
E|--5-5-5-5-1-1-3-3-3-3-3-(-1-1-1-1-1-)---------------

Bridge (lite muffled distortion)1st part
e|-----------------------------------------------
B|-----------------------------------------------
G|-----------------------------------------------
D|-7-9-9-5-5-5-5-5-7-9-9-5-5-5-5-7-7-------------
A|-9-7-7-7-7-X-X-X-9-7-7-7-7-X-X---X-------------
E|-----------6-6-6-----------6-6---6-------------
2nd part
e|------------------------------------
B|------------------------------------
G|------------------------------------
D|-7-9-9-5-5-5-5-5--------------------
A|-9-7-7-7-7-X-X-X--------------------
E|-----------6-6-6--------------------


Outro and 3rd part of bridge
e|------------------------------------
B|------------------------------------
G|------------------------------------
D|--9-7-7-7-5-5-9-7-7-7-7-5-5---------
A|--9-7-7-7-X-X-9-7-7-7-7-X-X---------
E|--7-5-5-5-6-6-7-5-5-5-5-6-6---------

Tabbed by fatmanc(l-u-c-)
Comments